Song name
# A B C D E F G H I J K L M N O P Q R S T U V W X Y Z

Prodigy - Smack My Bitch Up tab

Help us improve GuitareTab! Take a short survey!
Song: Smack My Bitch Up
Band: The Prodigy
Album: The Fat Of The Land
Tabbed By: Dylan Browne, TheReverend724

Intro
00:00-00:06
E---------------------------------------|
B---------------------------------------|
G--6---6---6---6---6---6---6---66666666-|
D--6---6---6---6---6---6---6---66666666-|
A--4---4---4---4---4---4---4---44444444-|
E---------------------------------------|

Synth Bass Part
00:07 (continues throughout song)
E------------------------------|
B------------------------------|
G------------------------------|
D------------------------------|
A------------------------------|
E--6-666666-6--6-66666p4-4h6---|

Low Synth part
00:21
E------------------------------------|
B------------------------------------|
G------------------------------------|
D------------------------------------|
A------------------------------------|
E--6-6—-4h6-6—-4h6-6—-4h6-6—-4h6-6---|

Main Riff (w/ chorus and wah)
01:46
E--------------------------------------------|
B--------------------------------------------|
G--------------------------------------------|
D---------55h7-5h6---------------------------|
A--------------------------------------------|
E—-4b6r4**----------4b6r4-55h7-5h6-----------|
 * o       + o +  o       + o +

*+ = closed (toe down)
 o = open (toe up)

**during the bend move from the closed position 
to the open position during the bend
 
Interlude
02:49
E---------------------------------------|
B---------------------------------------|
G---------------------------------------|
D---------------------------------------|
A---8-----8-----8-----8-----8-----8-----|
E---6-----6-----6-----6-----6-----6-----|
    +  o  +  o  +  o  +  o  +  o  +  o

Synth part after the interlude
04:00
E--------------------------------------------|
B--------------------------------------------|
G--------------------------------------------|
D--------------------------------------------|
A--------------------------------------------|
E---4h6---4h6---4h6---4h6---4h6---4h6---4h6--|
    o + o + o + o + o + o + o + o + o + o +

that’s it enjoy
Related for Smack My Bitch Up tab