Song name
# A B C D E F G H I J K L M N O P Q R S T U V W X Y Z

Prodigy - Trick tab

THIS PIANO IS PLAYED THORUGHOUT THE SONG

INTRO PART

e|------7-----------------------|
B|-----11----------12----10-----|
G|-----------------15----13-----|
D|------------------------------|
A|------------------------------|
E|------------------------------|

VERSES

e|----------------------------------------|
B|--12--------12----10--------------------|
G|--15--------15----13--------------------|
D|----------------------------------------|
A|----------------------------------------|
E|----------------------------------------|

THIS IS REPEATEDLY PLAYED IN THE BACKGROUND

e|----------------------------------------------|
B|----------------------------------------------|
G|----------------------------------------------|
D|----------------------------------------------|
A|----------------------------------------------|
E|-4---4-----4---4--4-----4---4-----4---4--4----|
Tap to rate this tab
 
# A B C D E F G H I J K L M N O P Q R S T U V W X Y Z