Song name
# A B C D E F G H I J K L M N O P Q R S T U V W X Y Z

Prodigy - Dead Kennedy Beats tab

Help us improve GuitareTab! Take a short survey!
THIS IS A LIVE TRACK BEING PLAYED ON THE 2004-2005 TOUR

IT'S VERY SIMPLE


e|------------------------------------------------------|
B|------------------------------------------------------|
G|------------------------------------------------------|
D|------------------------------------------------------|
A|-0-----0--0-----6-----6--6-----0-----0--0-------------|
E|-0-----0--0-----6-----6--6-----0-----0--0-------------|

e|-----------------|
B|-----------------|
G|-----------------| AND KEEP REPEATING
A|-6-----6--6------|
E|-6-----6--6------|

THERE YA GO
Related for Dead Kennedy Beats tab