Song name
# A B C D E F G H I J K L M N O P Q R S T U V W X Y Z

Prodigy - Everybody In The Place tab

Verse:

e|---------------------------------------------------------------------------|
B|---------------------------------------------------------------------------|
G|---------------------------------------------------------------------------|
D|-2-4-4-4--2-4-4-4--2-4-4-4---2-4-------------------------------------------|
A|---------------------------------2-2-2-------------------------------------|
E|---------------------------------------------------------------------------|


Chorus:

e|---------------------------------------------------------------------------------------------------|
B|12-12-10-12-12--10-12-10-12-10-------------------------9-10-10-9-10-10-9-10-9-10-9-----------------|
G|-------------------------------11-11-9-11-11-9-11-9-11-----------------------------9-9-8-9-9-8-9-9-|
D|---------------------------------------------------------------------------------------------------|
A|---------------------------------------------------------------------------------------------------|
E|---------------------------------------------------------------------------------------------------|


Post chorus:

played an octave higher

e|--14-11-13-11-13-14---14-11-13-11-13-11-13-14-14---------------------------|
B|---------------------------------------------------------------------------|
G|---------------------------------------------------------------------------|
D|---------------------------------------------------------------------------|
A|---------------------------------------------------------------------------|
E|---------------------------------------------------------------------------|


Tap to rate this tab
# A B C D E F G H I J K L M N O P Q R S T U V W X Y Z