Song name
# A B C D E F G H I J K L M N O P Q R S T U V W X Y Z

Professor Green - I Need You Tonight tab

http://www.myspace.com/professorgreen

hey this is my version of need you tonight

this song is covered from inxs but i think this version
is awesome 

any comments let us kno and plz rate

the whole song is just 2 riffs

the first is
|--8--8--8---11111111-1010-8---|
|--8--8--8---11111111-1010-8---|
|--9--9--9---------------------|
|--10-10-10--------------------|
|------------------------------|
|------------------------------|

and the second riff is
|---------------------------|
|---------------------------|
|--55-7-8-7-5-7-8-7---------|
|---------------------------|
|---------------------------|
|---------------------------|


have fun and hope it helps :)
Tap to rate this tab
 
# A B C D E F G H I J K L M N O P Q R S T U V W X Y Z