Song name
# A B C D E F G H I J K L M N O P Q R S T U V W X Y Z

Professor Green - Dpmo tab

Tabbed by: Dan
Email: bigboppinbill@hotmail.com

Tuning: Standard


This is the main riff thats played during the intro and chorus
e|--------------------------------------------------------------------------|
B|--------------------------------------------------------------------------|
G|--7-7-7-7-10-7-7----------------------------------------------------------|
D|------------------7-7-7-7-10-7-7--5-5-5-5-7-5s3-0-------------------------|
A|--------------------------------------------------------------------------|
E|--------------------------------------------------------------------------|

Not too sure about the power chords here but i think it sounds right
This is played during the verses
e|--------------------------------------------------------------------------|
B|--------------------------------------------------------------------------|
G|--7--7-10-7-7-------------------------------------------------------------|
D|--7--------------10--7-10-7-7---7--5-7-5s3-0------------------------------|
A|--5--------------10-------------7-----------------------------------------|
E|-----------------8--------------5-----------------------------------------|


Thats it really, have fun playing.
Tap to rate this tab
# A B C D E F G H I J K L M N O P Q R S T U V W X Y Z