Song name
# A B C D E F G H I J K L M N O P Q R S T U V W X Y Z

Professor Green - Never Be A Right Time tab

Tuning:EADGBE
Song: Never Be a Right Time
Album: At Your Inconvience
Artist: Professer Green
Tabbed By: Henners22

if you listen to the song you will work out the rythem
you can either play it like this:
MAIN RIFF:
|--------------------------------------|
|---3-2-------2-3-5----3-2-------3-2---|
|--2---2----2---------2---2-----2---2--|
|-0-----0------------------------------|
|----------2------------------0--------|
|-------------------3-----3------------|

or this, whichever is easier for you.
MAIN RIFF:
|--------------------------------------|
|--------------------------------------|
|----7-6------6-7-9----7-6------7-6----|
|---7---7----7--------7---7----7---7---|
|--5-----5--------------------0--------|
|-----------7-------3------3-----------|
it basically does that riff the whole way through apart from the bridge which is (i 
think this is right but im not quite sure):
BRIDGE:
|----5----5----5----5----2----2----5----5---|
|---3-3--3-3--2-2--2-3--3-3--3-3--5-5--5-5--|
|--2----2----2----2----2----2----6----6-----|
|-------------------------------------------|
|-------------------------------------------|
|-------------------------------------------|

|----5----5----5----5----2----2----5----5---|
|---3-3--3-3--2-2--2-3--3-3--3-3--5-5---5---|
|--2----2----2----2----2----2----6------6---|
|-------------------------------------------|
|-------------------------------------------|
|-------------------------------------------|

[Intro]
*PLAY MAIN RIFF ONCE*


[Verse 1]
*PLAY MAIN RIFF FOUR TIMES*
 This is stressing me
 Its really beginning to get to me
 You've always been the best to me
 And I've never given you any less of me
 You've never been in a negative energy
 I'm stressing, you tell me never to let it get to me
 There's never been another next to me, that means what you meant to me
 I said meant, but that's mean, I meant mean to me not meant to me!
 but I don't know if its meant to be
 I wanna tell you but nothings coming out when I speak
 I cant find the words to say, its like the words evade me

I'm struggling to find a way to word it, and I'm supposed to be a wordsmith
 It's just hard to find the words to say, hard to find the words to say..

[Chorus]
*PLAY MAIN RIFF TWICE*
 There'll never be a right time,
 The time will never be right.
 There'll never be a right time
 For me to tell you
 It's over

[Verse 2]
*PLAY MAIN RIFF FOUR TIMES*
 I was selling white, you were telling me i could do better
 I told you if I was you I'd leave but you never,
Forever had faith in me even when i never did
I said I'd never let her slip like her ex-fella did
 Been tryin to disguise it and dress it up,
I wanna tell her but i cant bear to see her welling up
 I've got to find the strength to let her know, I've got to find the strength to let her go
 But if I let her go I'll never know if things will get better with her,
See this could be a hiccup and not the end of the road
 I'd be better to never get involved, she deserves better
 than a fella with a fear of being alone

Struggling to find a way to word it, and I'm supposed to be a wordsmith
 It's just hard to find the words to say, it's hard to find the words to say..

[Chorus]
*PLAY MAIN RIFF TWICE*
 There'll never be a right time,
 The time will never be right.
 There'll never be a right time
 For me to tell you
 Its over

[Bridge]
*PLAY BRIDGE*
 I cant help the way I feel, I don't want us to end
 But I cant help the way I feel, I really can't pretend
 I cant help the way I feel, but I don't want us to end
 'Cause it will never be enough for us to just be friends

[Verse 3]
*PLAY MAIN RIFF TWICE*
 Nah, it'll never be enough
 'Cause I think we both know what it means for us
 I see the look on your face and I hate it
 But I finally pluck up enough courage to say it
 That's when she spins me around and tells me I ain't leaving
 To tell her I take it back to tell her that I don't mean it
 To look her dead in the eye and tell her I dont feel it
 But I don't feel it..

[Chorus]
*PLAY MAIN RIFF TWICE*
 There'll never be a right time,
 The time will never be right.
 There'll never be a right time
 For me to tell you
 Its over

Hope you like it!:)
Tap to rate this tab
 
# A B C D E F G H I J K L M N O P Q R S T U V W X Y Z