Song name
# A B C D E F G H I J K L M N O P Q R S T U V W X Y Z

Project 86 - All Of Me tab

All of Me
by Project 86

eb--------------------|
Bb-Bass only----------|
Gb--for a--------5--7-|
Db---while-------3--5-|
Ab---then-------------|
Db--------------------|

INTRO
eb------------------------------------------------------|
Bb------------------------------------------------------|
Gb-----3------3------------------3-------3----5--7------|
Db-3h5-5--3h5-5----3h5-3h5---3h5-5---3h5-5----3--5------|
Ab---------------3--------------------------3-----------|
Db------------------------------------------------------|

VERSE
eb---------------------------------------------------------------------|
Bb---------------------------------------------------------------------|
Gb--------------------------------------------------------------5--7---|
Db--------------------------------------------------------------3--5---|
Ab---------------------------------------------------------------------|
Db-0-3/5-8-5---0-3/5-8-5---0-8-10-8----0-3/5-8-5---0-3/5-8-5---0-------|

PRECHORUS
eb------------------------------------------------------|
Bb------------------------------------------------------|
Gb-----3------3------------------3-------3----5--7------|
Db-3h5-5--3h5-5----3h5-3h5---3h5-5---3h5-5----3--5------|
Ab---------------3--------------------------3-----------|
Db------------------------------------------------------|

CHORUS
eb----------------------------------------------------------------------|
Bb--8^--8^--8^--8^--8^--------------------------11-11-11-11-13-13-13-13-|
Gb----------------------10-10-10-10-10-10-10-10-------------------------|
Db----------------------------------------------------------------------|
Ab----------------------------------------------------------------------|
Db----------------------------------------------------------------------|

POST CHORUS
eb------------------------------------------|
Bb------------------------------------------|
Gb--------------------------------------5-7-|
Db--3-5----------3-5--------------------3-5-|
Ab--3-5----------3-5------------------------|
Db--3-5----------3-5--5*5*5*5*5*5*5*5*------|

BRIDGE
eb10101010101010101010101010101010-888888888888-1111-88---------------------|
Bb-----10's--------------------------------------11's-----------------------|
Gb--------------------------------------------------------------------------|
Db--------------------------------------------------------------------------|
Ab--------------------------------------------------------------------------|
Db--------------------------------------------------------------------------|
Tap to rate this tab
# A B C D E F G H I J K L M N O P Q R S T U V W X Y Z