Guitaretab - guitar tabs
Song name
# A B C D E F G H I J K L M N O P Q R S T U V W X Y Z

Project 86 - Solace tab

Drop d tuning.


E---------------------------|
B---------------------------|
G-8-9-6----11-13------------|
D6-6-6----------------------|  (x 6)
A---------9--9--9-----------|
D---------------------------|


Then:

E---------------------------|
B---------------------------|
G---------------------------|
Dó-666666666666666666-------|
A--666666666666666666 ------|
Dó-666666666666666666-------|
    . . . . . . . . .


CHORUS-
E|------------------------|
B|--------------9--7--7h9-|
G|--8--9--8---------------|  (x you figure it out)
D|-6--6--6---6------------|
A|------------------------|
D|------------------------|

bridge

E-------------------------|
B-------------------------|
G-------------------------|
D-------------------------|  (x a lot)
A--6-76-------------------|
d-6-6--898----------------|

then another guitar comes in with
[ Tab from: http://www.guitaretab.com/p/project-86/149474.html ]
E-------------------------------------------------|
B-------------------------------------------------|
G-------------------------------------------------|
D---66--666--666---666---666--666--666------------|  (x you figure it out)
A---66--666--666---666---666--666--666------------|
D---66--666--666---666---666--666--666------------|


Then
CHORUS-
E|------------------------|
B|--------------9--7--7h9-|
G|--8--9--8---------------|  (x you figure it out)
D|-6--6--6---6------------|
A|------------------------|
D|------------------------|


Then end with

E-------------------------------------------------|
B-------------------------------------------------|
G-------------------------------------------------|
D---66--666--666---666---666--666--666------------|  (x you figure it out)
A---66--666--666---666---666--666--666------------|
D---66--666--666---666---666--666--666------------|
Related for Solace tab