Song name
# A B C D E F G H I J K L M N O P Q R S T U V W X Y Z

Project 86 - The Spy Hunter tab

-------------------------------------------------------------------------------
			     The Spy Hunter - Project 86
-------------------------------------------------------------------------------
Tabbed by: patrickroyfan
Email: justinschielke@yahoo.com

Tuning: Drop D

This is my first tab so bear with me...

Some of the other tabs for this song have the right idea, but they're not quite 
right...so here's the right way...

Intro:

e|---------------------------------------------------------------------------|
B|-10---10---10---6----55-6---10---10---10---6----55-6-----------------------|
G|-7-77-7-77-7-77-7-77-77-7---7-77-7-77-7-77-7-77-77-7-----------------------|
D|---------------------------------------------------------------------------|
A|---------------------------------------------------------------------------|
D|---------------------------------------------------------------------------|
 PM  ..   ..   ..   ..          ..   ..   ..   ..

e|-----------0-----0---------------------------------------------------------|
B|-----------0-----0---------------------------------------------------------|
G|-----------0-----0---------------------------------------------------------|
D|-0--666-0-----0------3-----------------------------------------------------|
A|-0--666-0-----0------3-----------------------------------------------------|
D|-0--666-0-----0------3-----------------------------------------------------|


Verse Riff:

e|---------------------------------------------------------------------------|
B|---------------------------------------------------------------------------|
G|---------------------------------------------------------------------------|      (x5)
D|---------------------------------------------------------------------------|
A|---------------------------------------------------------------------------|
D|-00-6-00-6-00-3-0-2-0-3-2--00-6-00-6-00-3-0-2-0-3--------------------------|

Prechorus:

e|---------------------------------------------------------------------------|
B|---------------------------------------------------------------------------|
G|-----------------------13----------------------------13-----14-------------|
D|-0-22-33-66-55-555555---x-(x8)-0-22-33-66-55-555555--x-(x8)-x-(x8)---------|
A|-0-22-33-66-55-555555--11------0-22-33-66-55-555555--11-----12-------------|
D|-0-22-33-66-55-555555----------0-22-33-66-55-555555------------------------|

Chorus:

e|---------------------------------------------------------------------------|
B|------10--10-8-10-8-666----------------------------------------------------|
G|--------77----7-----777----------------------------------------------------|  (x8)
D|-000-----------------------------------------------------------------------|
A|-000-----------------------------------------------------------------------|
D|-000-----------------------------------------------------------------------|

Postchorus:

e|----0----------------------------------------------------------------------|
B|----0----------------------------------------------------------------------|
G|----0----------------------------------------------------------------------|
D|-0-------------------------------------------------------------------------|
A|-0-----pickslide-----------------------------------------------------------|
D|-0-----pickslide-----------------------------------------------------------|

Verse Riff (x4)

Prechorus

Chorus (x8)

Bridge:

e|---------------------------------------------------------------------------|
B|---------------------------------------------------------------------------|
G|------------------------------13-------------------------------------------|
D|-0-----6-----3-----8-10-------x-(x16)--------------------------------------|
A|-0-5h6-6-5h6-3-5h6-8-10--(x4)-11-------------------------------------------|
D|-0-----6-----3-----8-10----------------------------------------------------|

Prechorus

Chorus (x9)

Outro:

e|---------------------------------------------------------------------------|
B|---------------------------------------------------------------------------|
G|---------------------------------------------------------------------------|
D|-0~------------------------------------------------------------------------|
A|-0~------------------------------------------------------------------------|
D|-0~------------------------------------------------------------------------|


| /  slide up
| \  slide down
| h  hammer-on
| p  pull-off
| ~  vibrato
| +  harmonic
| x  Mute note
===============================================================================
Tap to rate this tab
# A B C D E F G H I J K L M N O P Q R S T U V W X Y Z