Song name
# A B C D E F G H I J K L M N O P Q R S T U V W X Y Z

Project 86 - Fall Goliath Fall tab

INTRO (CLEAN):
E|------------------------------------------------------------------------|
G|------------------------------------------------------------------------|
B|-------12--12109--------------------13-131110-----------11-11-10--------|
D|-9-999-----------9-999-7-7-7--9-999-----------13-131313-----------------|X2
A|------------------------------------------------------------------------|
D|------------------------------------------------------------------------|

E|------------------------------------------------------------------------|
G|-----------------11-111111-9-9-9----------------------------------------|
B|-------12--12109-----------------13-131110-----------11-11-10-----------|
D|-9-999-------------------------------------13-131313--------------------|X2
A|------------------------------------------------------------------------|
D|------------------------------------------------------------------------|

This is also the beginning of the bridge and the outro.
Tap to rate this tab
 
# A B C D E F G H I J K L M N O P Q R S T U V W X Y Z