Song name
# A B C D E F G H I J K L M N O P Q R S T U V W X Y Z

Project 86 - Sots tab

PROJECT 86 
SOTS
DROP B TUNING

*-palm mute
/-slide
X-mute/dead note


RIFF:
Db|--------------------------------------------------------------------------------|
Ab|--------------------------------------------------------------------------------|
E |--------------------------------------------------------------------------------|X2
B |-------5/7-----------------------5/7--------------------------------------------|
Gb|-0-0-0-3/5-6--0-0-0-3-6-1--0-0-0-3/5-6--0-0-0-1--1------------------------------|
B |-0-0-0-----6--0-0-0-3-6-1--0-0-0-----6--0-0-0-1--1------------------------------|

VERSE:
Db|-17--15--13--12-----------------------------------------------------------------|
Ab|--X---X---X---X-----------------------------------------------------------------|
E |-14--12--10---9-----------------------------------------------------------------|X2
B |--------------------------------------------------------------------------------|
Gb|--------------------------------------------------------------------------------|
B |--------------------------------------------------------------------------------|
Try either 8th note or 16th note picking

PRE-CHORUS:
Db|--------------------------------------------------------------------------------|
Ab|--------------------------------------------------------------------------------|
E |--------------------------------------------------------------------------------|X2
B |--------------------------------------------------------------------------------|
Gb|-8-6-0-5-0-6-5-0-3-(X-X OR 0-0)-------------------------------------------------|
B |-8-6-0-5-0-6-5-0-3-(X-X OR 0-0)-------------------------------------------------|
                              * *
CHORUS:
Db|--------------------------------------------------------------------------------|
Ab|--------------------------------------------------------------------------------|
E |--------------------------------------------------------------------------------|X2
B |---------7-----7---------5---5/7------------------------------------------------|
Gb|---------6-----5---------3---3/5------------------------------------------------|
B |-0-0-0-0---0-0---0-0-0-0---0----------------------------------------------------|

BRIDGE:
Db|--------------------------------------------------------------------------------|
Ab|--------------------------------------------------------------------------------|
E |--------------------------------------------------------------------------------|X2
B |-------5/7-----------------------5/7--------------------------------------------|
Gb|-0-0-0-3/5-6--0-0-0-3-6-1--0-0-0-3/5-6--0-0-0-0--0------------------------------|
B |-0-0-0-----6--0-0-0-3-6-1--0-0-0-----6--0-0-0-1--1------------------------------|
    * * *        * * *        * * *        * * * *  *

Db|-17--18--17--15-----------------------------------------------------------------|
Ab|--X---X---X---X-----------------------------------------------------------------|
E |-14--15--14--12-----------------------------------------------------------------|X2
B |--------------------------------------------------------------------------------|
Gb|--------------------------------------------------------------------------------|
B |--------------------------------------------------------------------------------|
Try either 8th note or 16th note picking


OUTRO:
Db|--------------------------------------------------------------------------------|
Ab|--------------------------------------------------------------------------------|
E |--------------------------------------------------------------------------------|
B |-------5/7-----------------------5/7--------------------------------------------|
Gb|-------3/5-6--------3-6-1--------3/5-6--------0--0------------------------------|
B |-0-0-0-----6--0-0-0-3-6-1--0-0-0-----6--0-0-0-1--1------------------------------|
*  *


ORDER:

RIFF 
VERSE 
PRE-CHORUS
CHORUS 
VERSE 
PRE-CHORUS
CHORUS 
RIFF
BRIDGE
PRE-CHORUS
CHORUS 
RIFF
OUTRO
Tap to rate this tab
# A B C D E F G H I J K L M N O P Q R S T U V W X Y Z