Song name
# A B C D E F G H I J K L M N O P Q R S T U V W X Y Z

Project 86 - The Spy Hunter tab

Help us improve GuitareTab! Take a short survey!
Tab: The Spy Hunter
Artist: Project 86
Album: Songs to Burn Your Bridges By

Key: ~  = let ring
        x =mute
        h = hammer on

Drop Db

Intro: Guitar 1
eb||--------------------------------------------------------------------------------|
Bb||------10-------66---88----66---8------------------------------------------------|
Gb||-----------77-------------------------------------------------------------------|  x2
Db||--------------------------------------------------------------------------------|
Ab||--------------------------------------------------------------------------------|
Db||--------------------------------------------------------------------------------|

Intro: Guitar 2 (after guitar 1 is done)
||----------------------0~------0~-----------------------------------------------|
||----------------------0~------0~-----------------------------------------------|
||----------------------0~------0~-----------------------------------------------|
||---0~---666----0~-------0~-----------------------------------------------------|
||---0~---666----0~-------0~-----------------------------------------------------|
||---0~---666----0~-------0~-----------------------------------------------------|

Verse: Both Guitars
||----------------------------------------------------------------------------------|
||----------------------------------------------------------------------------------|
||----------------------------------------------------------------------------------|
||---00----6---00----6---00----3----0----2-----0---3-0------------------------  x10-|
||---00----6---00----6---00----3----0----2-----0---3-0------------------------------|
||---00----6---00----6---00----3----0----2-----0---3-0------------------------------|

Prechorus: Both Guitars
||------------------------------------------------------------------------------|
||------------------------------------------------------------------------------|
||-----------------------------------13-13-13-13-13-13-13-13/-------------------|
||---0---22--33---6666---55555555/--x---x--x--x--x--x--x--x/--------------------| x2
||---0---22--33---6666---55555555/-11-11-11-11-11-11-11-11/---------------------|
||---0---22--33---6666---55555555/----------------------------------------------|

Guitar 1:
Gb||---14---------------|
Db||----x---------------| x8
Ab||---12---------------|


Chorus: Guitar 1:
||--------------------------------------------------------------------------------|
||----10--------10----------10-------6h8 888888-----------------------------------|
||---------7-7--------7-7--------7----------777777--------------------------------|
||--------------------------------------------------------------------------------|  x8
||--------------------------------------------------------------------------------|
||--------------------------------------------------------------------------------|

Guitar 2:
||-----------------------------------------------------------------------------|
||-----------------------------------------------------------------------------|
||-----------------------------------------------------------------------------|
||---000----------------------------------------------------000----------------|  x8
||---000----------------------------------------------------000----------------|
||---000----------------------------------------------------000----------------|


Postchorus: Both Guitars
||---------0~---------------------------------------------------------------------|
||---------0~---------------------------------------------------------------------|
||---------0~---------------------------------------------------------------------|
||---0~---------------(pisckscrape down)------------------------------------------|
||---0~---------------------------------------------------------------------------|
||---0~---------------------------------------------------------------------------|

Verse
Prechorus
Chorus

Bridge: Guitar part interchangeable
||------------------------------------------------------------------------------|
||------------------------------------------------------------------------------|
||-------------7h8----------7h8------7h8----------------------------------------|
||-----0----------------6-----------3----------666---888------------------------| x4
||-----0----------------6-----------3----------666---888------------------------|
||-----0----------------6-----------3----------666---888------------------------|

Guitar 1:
Gb||---13------------|
Db||----x------------| x8
Ab||---11------------|

Prechorus
Chorus
(The outro is the chorus riff one time while letting the last chord ring.)

I couldn't find a completly correct version of this song, so I worked it out. This is my 
official tab, so please give me feed back/ rate.
Related for The Spy Hunter tab