Song name
# A B C D E F G H I J K L M N O P Q R S T U V W X Y Z

Project 86 - Say Goodnight To The Bad Guy tab

P86-Say Goodnight to the Bad Guy...

tuning: drop D

intro
|------------------------------------------------------------------|
|------------------------------------------------------------------|
|------------------------------------------------------------------|
|---------------------------------------------------------------10\|
|-3-3-3-2-2-3-0-0-0-0-0-0-0-0-0-0-3-3-3-2-2-3-5-5-5-5-5-5-5-5-5-10\|
|---------------------------------------------------------------10\|

verse
|------------------------------------------------------------------|
|------------------------------------------------------------------|
|------------------------------------------------------------------|
|---------------------------------------------------------------10\|
|-3-3-3-2-2-3-0-0-0-0-0-0-0-0-0-0-3-3-3-2-2-3-5-5-5-5-5-4-4-4-5-10\|
|---------------------------------------------------------------10\|

chorus I
|
|-------------------------------------------------------------------------|
|-------------------------------------------------------------------------|
|-9-9-8-8-10-9-3-3-3-3-3-3-3-3-3-3-9-9-8-8-8-9/12-12-12-12-12-11-11-11-12-|
|-9-9-8-8-10-9-3-3-3-3-3-3-3-3-3-3-9-9-8-8-8-9/12-12-12-12-12-11-11-11-12-|
|-9-9-8-8-10-9-3-3-3-3-3-3-3-3-3-3-9-9-8-8-8-9/12-12-12-12-12-11-11-11-12-|

chorus II
|----------------------------------------------------------------------------|
|----------------------------------------------------------------------------|
|----------------------------------------------------------------------------|
|-10-10-10-10-10-10-10-10-5-5-5-5-5-5-5-5-0-0-0-0-0-0-0-0-5-5-5-5-5-5-5-5*---|
|-10-10-10-10-10-10-10-10-5-5-5-5-5-5-5-5-0-0-0-0-0-0-0-0-5-5-5-5-5-5-5-5*---|
|-10-10-10-10-10-10-10-10-5-5-5-5-5-5-5-5-0-0-0-0-0-0-0-0-5-5-5-5-5-5-5-5*---|
Tap to rate this tab
 
# A B C D E F G H I J K L M N O P Q R S T U V W X Y Z