Song name
# A B C D E F G H I J K L M N O P Q R S T U V W X Y Z

Project 86 - Circuitry tab

Circuitry
by Project 86
c2004 Tooth and Nail

Drop D tuning

Very easy song to play, here we go...

Intro

E----------|
B----------|
G----------|
D--9-8-5-2-|
A--9-8-5-2-|
D--9-8-5-2-|

Verse

E-------------------------------------------------------|
B-------------------------------------------------------|
G-------------------------------------------------------|
D------9-----7-----7-----5--------------------------8-7-|
A--7-7---7-7---5-5---5-5---not too sure about that--8-7-|
D---------------------------------------------------8-7-|

Chorus

E--------------------|
B--------------------|
G--------------------|
D--8--7--5-2-0-2-0-2-|
A--8--7--5-2-0-2-0-2-|
D--8--7--5-2-0-2-0-2-|

Bridge

E----------|
B----------|
G----------|
D--5-2-0-2-|
A--5-2-0-2-|
D--5-2-0-2-|

there you go...
Tap to rate this tab
# A B C D E F G H I J K L M N O P Q R S T U V W X Y Z