Song name
# A B C D E F G H I J K L M N O P Q R S T U V W X Y Z

Project 86 - 3card tab

Song: 3Card
Artist: Project 86
c2004 Tooth and Nail

C# tuning

Verse

D#-------------------------------------------------------------------|
A#-------------------------------------------------------------------|
F#-------------------------------------------------------------------|
C#--x-x-x-x-x-x-x-x-x-x-x-x-6--0--6--0--8--3--6--0-x-x-x-x-x-x-x-x-x-|
G#--x-x-x-x-x-x-x-x-x-x-x-x-6--0--6--0--8--3--6--0-x-x-x-x-x-x-x-x-x-|
C#--x-x-x-x-x-x-x-x-x-x-x-x-6--0--6--0--8--3--6--0-x-x-x-x-x-x-x-x-x-|

Chorus

D#--------------|
A#--------------|
F#-----------7--|
C#--3--5--0--x--|
G#--3--5--0--5--|
C#--3--5--0-----|

Bridge

D#-----
A#-----
F#--7--
C#--x--
G#--5--
C#-----

That's what I got. There might be a bit more, but i think that's basically it.
Tap to rate this tab
 
# A B C D E F G H I J K L M N O P Q R S T U V W X Y Z