Song name
# A B C D E F G H I J K L M N O P Q R S T U V W X Y Z

Project 86 - Another Boredom Movement tab

Project 86 - Another Boredom Movement

Dropped D Tuning

Intro
e---(0)-------------------------------------------------------|
B---(0)-------------------------------------------------------|
G---(0)-------------------------------------------------------|
D----0--------------------------------------------------------|  Play twice
A----0-----------------let ring-------------------------------|
D----0--------------------------------------------------------|

Intro part 2
e-------------------------------------------------------------|
B-------------------------------------------------------------|
G-------------------------------------------------------------|
D-------------------------------------------------------------|   Play 4 times
A-----5-5-----5h6-5----5-5-----3------------------------------|
D--0-------0---------0------0---------------------------------|

Play The First Intro for the first verse. Play the GBe strings too.

Chorus
e----------------------------------------------|
B----------------------------------------------|
G-------------------7-----7-----7--------------|
D--5555--6666--00-----0-----0-----0------------|
A--5555--6666--00--5--0--5--0--5--0------------|   Play this 4 times
D--5555--6666--00-----0-----0-----0------------|

Play Intro 2 Again

Play The First Intro again for the second verse.

Play the Chorus again normal. Then play the Second intro after that.

 The Bridge part is basically the same as the first intro.
e--------0------|
B--------0------|
G--------0------|
D---0----0------|   Let ring
A---0-----------|
D---0-----------|

Then Play
D--0--0--0--0--------------------------------------------------------------|
A--0--0--0--0   Palm mute each one and you should play the entire chord 16-| times total.
D--0--0--0--0--------------------------------------------------------------|

Then go back to the second intro.  Play it 4 times and then this

G-------------------------5----|
D---0-0-0-0----0-0-0-0---------|
A---0-0-0-0----0-0-0-0---3-----|  Play 3 times
D---0-0-0-0----0-0-0-0---------|

End with
D---0-0-0-0---|
A---0-0-0-0---|
D---0-0-0-0---|
Tap to rate this tab
# A B C D E F G H I J K L M N O P Q R S T U V W X Y Z