Song name
# A B C D E F G H I J K L M N O P Q R S T U V W X Y Z

Project 86 - Sincerely Ichabod tab

artist: Project 86
album:...And the rest will follow
song:sincerely,ichabod
Tuning:C-G-C-F-A-D
tab key
*       -harmonic
PM-| = Palm mute
p*- pinch harmanic
~- vibro

intro\verse
|--------------------------------------|
|--------------------------------------|
|--------------------------------------|
|--------------------------------------|
|---000---000-3*--000---000------------|
|---000---000-3*--000---000------------|
  PM|---|   |---|       |---|    |-----|

intro solo
|---------------------------------|
|-10-10-10-10-10-10-10-10-10------|
|-12-11-10--9-12-14-11-10--9------|
|---------------------------------|
|---------------------------------|
|---------------------------------|


chorus intro
|------------------------------------------------|
|------------------------------------------------|
|------------------------------------------------|
|------------------------------------------------|
|-10-5-8-3-6-6-6-6-------------------------------|
|-10-5-8-3-6-6-6-6-0-0-0-0-3p0-0-3p0-0-0-0-0-----|


chorus
|-----------------------------------------------|
|-----------------------------------------------|
|-----------------------------------------------|
|-----------------------------------------------|
|-0-2-3-----------------------------------------|
|-0-2-3-6-00-00-0-00-000-6-0-00-0-00-000-3------|

chorus outro 1
|-------------------------------|
|-------------------------------|
|-------------------------------|
|-------------------------------|
|-0-2-3-6/0-3-0-6/0-00000000----|
|-0-2-3-6/0-3-0-6/0-00000000----|

chous outro 2
|------------------------|
|------------------------|
|------------------------|
|------------------------|
|-0-2-3-6~~~-3-5-0~~~----|
|-0-2-3-6~~~-3-5-0~~~----|

chorus outro 3 (yes, this is the last one)
|----------------------------------|
|----------------------------------|
|----------------------------------|
|----------------------------------|
|-6~~-3-5--------------------------|
|-6~~-3-5-00000000000000-0/12b-----|

outro pt. 1
|--------------------------------------------------------|
|-10-10-10-10-10-10-10-10--10-10-10-10-10-10-10-10-------|
|-13-13-13-13-13-13-13-13--14-14-14-14-14-14-14-14-------|
|--------------------------------------------------------|
|--------------------------------------------------------|
|--------------------------------------------------------|


and thats it this song is awsome, and really easy to play it was the first full song i 
just lisen to the song for timing and that crap
Tap to rate this tab
# A B C D E F G H I J K L M N O P Q R S T U V W X Y Z