Song name
# A B C D E F G H I J K L M N O P Q R S T U V W X Y Z

Project 86 - Necktie Remedy tab

I play this in Drop D, but if you want to play with the cd, you have to take it down
a half-pitch, and play the verse part a fret down.

Intro:
E--------------------------------------|
B--------------------------------------|
G--------------------------------------|
D-7~--2-2-2-2-2--3-3-3-3-3--5-5-5-5-5--|
A-7~--2-2-2-2-2--3-3-3-3-3--5-5-5-5-5--|
D-7~--2-2-2-2-2--3-3-3-3-3--5-5-5-5-5--|

Then he plays the same chords only, lets them ring

Verse:
E-------------------------8~-----------|
B--10~--8~-------------10~-------------|
G-----------10~--9-10~-------10~-9-10~-|
D--------------------------------------|
A--------------------------------------|
D--------------------------------------|

Bridge:
B--------------------------------------------------|
G--------------------------------------------------|
D-222222222222--7~--5~--3~--2~-3~--7~--10~--3~--0~-|
A-222222222222--7~--5~--3~--2~-3~--7~--10~--3~--0~-|
D-222222222222--7~--5~--3~--2~-3~--7~--10~--3~--0~-|

Chorus:
E-----------------------------------------|
B-----------------------------------------|
G-----------------------------------------|
D-7-7-7--2-2-2-2-2--3-3-3-3-3--5-5-5-5-5--|
A-7-7-7--2-2-2-2-2--3-3-3-3-3--5-5-5-5-5--|
D-7-7-7--2-2-2-2-2--3-3-3-3-3--5-5-5-5-5--|

Then....
E--------------------------------------------------------------------------|
B--------------------------------------------------------------------------|
G--------------------------------------------------------------------------|
D-7-7-7--19-19-19--2-2-2--19/17-17-17--3-3-3--19-19-19--5-5-5--15/17-17-17-|
A-7-7-7--19-19-19--2-2-2--19/17-17-17--3-3-3--19-19-19--5-5-5--15/17-17-17-|
D-7-7-7--19-19-19--2-2-2--19/17-17-17--3-3-3--19-19-19--5-5-5--15/17-17-17-|

Another Bridge:
E------------|
B------------|
G------------|
D-7-10-7-5-7-|
A-7-10-7-5-7-|
D-7-10-7-5-7-|

this is repeated multiple times

Ending:
E-------------------------------------------------------|
B-------------------------------------------------------|
G-------------------------------------------------------|
D-7-7-7--19-19-19--2-2-2--19/17-17-17--3-3-3--19-19-19--|
A-7-7-7--19-19-19--2-2-2--19/17-17-17--3-3-3--19-19-19--|
D-7-7-7--19-19-19--2-2-2--19/17-17-17--3-3-3--19-19-19--|

E---------------------------------------|
B---------------------------------------|
G---------------------------------------|
D-22-21-22-21-22-21-19-17-15-14-12-10-7-|
A-22-21-22-21-22-21-19-17-15-14-12-10-7-|
D-22-21-22-21-22-21-19-17-15-14-12-10-7-|
Tap to rate this tab
 
# A B C D E F G H I J K L M N O P Q R S T U V W X Y Z