Song name
# A B C D E F G H I J K L M N O P Q R S T U V W X Y Z

Project 86 - Evil A Chorus Of Resistance tab

tabbed by BlakeB

Terms Needed:
\ = slide down
* = palm mute

Intro: (X2)

e|--------------------------------------------------------------------------|
B|--------------------------------------------------------------------------|
G|--------------------------------------------------------------------------|
D|--0-0-8-7-7-7-10-8-8-8-8-12-15-12-15-12--0-0-8-7-7-7-10-8-8-8-8-8-8-7-7-7-|
A|--0-0-8-7-7-7-10-8-8-8-8-12-15-12-15-12--0-0-8-7-7-7-10-8-8-8-8-8-8-7-7-7-|
D|--0-0-8-7-7-7-10-8-8-8-8-12-15-12-15-12--0-0-8-7-7-7-10-8-8-8-8-8-8-7-7-7-|


Verse 1: (x4)
            (play this part on the 1st and 3rd time through)
e|-------------------------------------------------------------------------|
B|-------------------------------------------------------------------------|
G|-----------------0-0-0-0-0-0-0-0-----------------------------------------|
D|-3-3-3-3-3-3-3-3-2-2-2-2-2-2-2-2-0-0-0-0-7-7-7-7-7-7-7-7-7-7-7-7---------|
A|-5-5-5-5-5-5-5-5-3-3-3-3-3-3-3-3-1-1-1-1-4-4-4-4-5-5-5-5-5-5-5-5---------|
D|-------------------------------------------------------------------------|


            (play this part on the 2nd and 4th time through)
                 (slide only on the last time through)
e|-------------------------------------------------------------------------|
B|-------------------------------------------------------------------------|
G|-------------------------------------------------------------------------|
D|-3-3-3-3-3-3-3-3-5-5-5-5-5-5-5-5-0-0-0-0-7-7-7-7-7-7-7-7-7-7-7-7\--------|
A|-5-5-5-5-5-5-5-5-3-3-3-3-3-3-3-3-1-1-1-1-4-4-4-4-5-5-5-5-5-5-5-5\--------|
D|-------------------------------------------------------------------------|


Chorus: (X2)
e|--------------------------------------------------------------------------|
B|--------------------------------------------------------------------------|
G|--------------------------------------------------------------------------|
D|--0-0-8-7-7-7-10-8-8-8-8-12-15-12-15-12--0-0-8-7-7-7-10-8-8-8-8-8-8-7-7-7-|
A|--0-0-8-7-7-7-10-8-8-8-8-12-15-12-15-12--0-0-8-7-7-7-10-8-8-8-8-8-8-7-7-7-|
D|--0-0-8-7-7-7-10-8-8-8-8-12-15-12-15-12--0-0-8-7-7-7-10-8-8-8-8-8-8-7-7-7-|


Verse 2: (X4)
e|-------------------------------------------------------------------------|
B|-10-10-10-10-------------------------------------------------10-10-10-10-|
G|------------10-10-10-10-7-7-7-7-----------7-7-7-7-10-10-10-10------------|
D|-------------------------------10-10-10-10-------------------------------|
A|-------------------------------------------------------------------------|
D|-------------------------------------------------------------------------|
              *  *  *  *  * * * * *  *  * * * * * * *  *  *  *

(continued...)
e|---------------------------------------------------------------------------|
B|------------8-8-8-8-8-8-8-8------------------------------------------------|
G|-10-10-10-10---------------6-6-6-6-6-6-6-6-7-7-7-7-7-7-7-7-7-7-7-7-7-7-7-7-|
D|---------------------------------------------------------------------------|
A|---------------------------------------------------------------------------|
D|---------------------------------------------------------------------------|
   *  *  *  * * * * * * * * ** * * * * * * * * * (gradually let off/get louder only on
2nd and 4th time through)

e|--------      e|------|
B|--------      B|------|
G|--------  or  G|------|
D|-12\----      D|-7\---|
A|-12\----      A|-5\---|
D|-12\----      D|------|


Chorus: (X4)
e|--------------------------------------------------------------------------|
B|--------------------------------------------------------------------------|
G|--------------------------------------------------------------------------|
D|--0-0-8-7-7-7-10-8-8-8-8-12-15-12-15-12--0-0-8-7-7-7-10-8-8-8-8-8-8-7-7-7-|
A|--0-0-8-7-7-7-10-8-8-8-8-12-15-12-15-12--0-0-8-7-7-7-10-8-8-8-8-8-8-7-7-7-|
D|--0-0-8-7-7-7-10-8-8-8-8-12-15-12-15-12--0-0-8-7-7-7-10-8-8-8-8-8-8-7-7-7-|


Bridge: (X4)
            (play on 1st and 3rd time through)
e|-------------------------------------------------------------------------|
B|-------------------------------------------------------------------------|
G|-----------------0-0-0-0-0-0-0-0-----------------------------------------|
D|-3-3-3-3-3-3-3-3-2-2-2-2-2-2-2-2-0-0-0-0-7-7-7-7-7-7-7-7-7-7-7-7---------|
A|-5-5-5-5-5-5-5-5-3-3-3-3-3-3-3-3-1-1-1-1-4-4-4-4-5-5-5-5-5-5-5-5---------|
D|-------------------------------------------------------------------------|

            (play on 2nd and 4th time through)
e|-------------------------------------------------------------------------|
B|-------------------------------------------------------------------------|
G|-------------------------------------------------------------------------|
D|-3-3-3-3-3-3-3-3-5-5-5-5-5-5-5-5-0-0-0-0-7-7-7-7-7-7-7-7-7-7-7-7\--------|
A|-5-5-5-5-5-5-5-5-3-3-3-3-3-3-3-3-1-1-1-1-4-4-4-4-5-5-5-5-5-5-5-5\--------|
D|-------------------------------------------------------------------------|
                                 (Slide only on the last time through)


---------------------------------NOTICE!!!!--------------------------------
some seem to think the bridge is played like this(below) when actually this is the part
by the keyboard. whats actually played at the bridge is exactly whats played
during the verse(above).

Bridge: (X4)
      (again, this is the WRONG way/this is the keyboard part)
                   (and its played in triplets)
   (i tabbed this part merely to show you what i was talking about)

e|-10-8--10-8--10-8--10-8--10-8--10-8--------------------------------------|
B|-----10----10----10----10----10----10-8----------------------------------|
G|---------------------------------------10--------------------------------|
D|-------------------------------------------------------------------------|
A|-------------------------------------------------------------------------|
D|-------------------------------------------------------------------------|

Chorus: (X4)
        (play this only the 1st time through)
e|--------------------------------------------------------------------------|
B|--------------------------------------------------------------------------|
G|--------------------------------------------------------------------------|
D|-----------------------------------------0-0-8-7-7-7-10-8-8-8-8-8-8-7-7-7-|
A|-----------------------------------------0-0-8-7-7-7-10-8-8-8-8-8-8-7-7-7-|
D|--0-0-8-7-7-7-10-8-8-8-8-12-15-12-15-12--0-0-8-7-7-7-10-8-8-8-8-8-8-7-7-7-|

        (X3)
e|--------------------------------------------------------------------------|
B|--------------------------------------------------------------------------|
G|--------------------------------------------------------------------------|
D|--0-0-8-7-7-7-10-8-8-8-8-12-15-12-15-12--0-0-8-7-7-7-10-8-8-8-8-8-8-7-7-7-|
A|--0-0-8-7-7-7-10-8-8-8-8-12-15-12-15-12--0-0-8-7-7-7-10-8-8-8-8-8-8-7-7-7-|
D|--0-0-8-7-7-7-10-8-8-8-8-12-15-12-15-12--0-0-8-7-7-7-10-8-8-8-8-8-8-7-7-7-|


End On:
e|----------------|
B|----------------|
G|----------------|
D|-0--------------|
A|-0--------------|
D|-0--------------|
  (Let it ring out)


Thanks for lookin at my tab and i hope you enjoyed it. keep rockin.
message me at bauer_blake@hotmail for comments and/or suggestions.
Tap to rate this tab
# A B C D E F G H I J K L M N O P Q R S T U V W X Y Z