Song name
# A B C D E F G H I J K L M N O P Q R S T U V W X Y Z

Project 86 - Illuminate tab

Intro/Chorus pt. 2
e------------------------------------------------------------------|
b------------------------------------------------------------------|
g-----------------------------------8-8-8-8-8-8-8-8-7-7-7-7-7-7-7--|
d-4-5-5-5-5-5-0-0-0-8-8-8-8-8-0-0-0-8-8-8-8-8-8-8-8-7-7-7-7-7-7-7--|
a-4-5-5-5-5-5-0-0-0-8-8-8-8-8-0-0-0-6-6-6-6-6-6-6-6-5-5-5-5-5-5-5--|
D-4-5-5-5-5-5-0-0-0-8-8-8-8-8-0-0-0--------------------------------| 2x

Verse

e-----------------------------------------------------------|\
b-----------------------------------------------------------| \
g-----------------8-8-8-8-----7---------------8-8-8-8-4-4-4-|  \
d-4-5-5-5-5-8-8-8-8-8-8-8-7-7-7-5-5-5-5-8-8-8-8-8-8-8-4-4-4-|   \
a-4-5-5-5-5-8-8-8-6-6-6-6-7-7-5-5-5-5-5-8-8-8-6-6-6-6-4-4-4-|    \ 
D-4-5-5-5-5-8-8-8---------7-7---5-5-5-5-8-8-8---------4-4-4-|     \
                                                                   \
Verse (cont.)                                                      2x 
                                                                   /  
e-----------------------------------------------------------|     /
b-----------------------------------------------------------|    /
g---------------8-8-8-8-----7---------------8-8-8-8-4-4-4-4-|   /
d-5-5-5-5-8-8-8-8-8-8-8-7-7-7-5-5-5-5-8-8-8-8-8-8-8-4-4-4-4-|  / 
a-5-5-5-5-8-8-8-6-6-6-6-7-7-5-5-5-5-5-8-8-8-6-6-6-6-4-4-4-4-| / 
D-5-5-5-5-8-8-8---------7-7---5-5-5-5-8-8-8---------4-4-4-4-|/

Chorus pt. 1

e-----------------------------------------------------------------|
b-----------------------------------------------------------------|
g---------------------------------8-8-8-8-8-8-8-8---------7-7-7---|
d-5-5-5-5-5-0-0-0-8-8-8-8-8-0-0-0-8-8-8-8-8-8-8-8-7-7-7-7-7-7-7-4-|
a-5-5-5-5-5-0-0-0-8-8-8-8-8-0-0-0-6-6-6-6-6-6-6-6-7-7-7-7-5-5-5-4-|
D-5-5-5-5-5-0-0-0-8-8-8-8-8-0-0-0-----------------7-7-7-7-------4-| 2x

(Chorus pt. 2)
(Verse)
(Chorus pt. 1)
(Chorus pt. 2)

Bridge

e---------------------------------------------------------|
b---------------------------------------------------------|
g---------------------------------------------------------|
d-1-1-1-1-0-0-0-5-5-5-5-4-4-4-1-1-1-1-0-0-0-8-8-8-8-5-5-5-|
a-1-1-1-1-0-0-0-5-5-5-5-4-4-4-1-1-1-1-0-0-0-8-8-8-8-5-5-5-|
D-1-1-1-1-0-0-0-5-5-5-5-4-4-4-1-1-1-1-0-0-0-8-8-8-8-5-5-5-|   

Bridge (cont.)

e---------------------------------------------------------------|
b---------------------------------------------------------------|
g---------------------------------------------------------------|
d-1-1-1-1-0-0-0-5-5-5-5-4-4-4-1-1-1-1-0-0-0-8-8-8-8-10-10-10-10-|
a-1-1-1-1-0-0-0-5-5-5-5-4-4-4-1-1-1-1-0-0-0-8-8-8-8-10-10-10-10-|
D-1-1-1-1-0-0-0-5-5-5-5-4-4-4-1-1-1-1-0-0-0-8-8-8-8-10-10-10-10-|

(Chorus pt. 1) 2x
(Chorus pt. 2)

The End
Tap to rate this tab
# A B C D E F G H I J K L M N O P Q R S T U V W X Y Z