Guitaretab - guitar tabs
Song name
# A B C D E F G H I J K L M N O P Q R S T U V W X Y Z

Project 86 - Slaves To Liberty tab

Slaves To Liberty Solo
In Standard Tuning. The song itself may be in different tuning, but this is right for 
solo.  it's pretty straight-forward, and it looks like it actually came right out of the 
Major Pentatonic scale.  Enjoy!
óZ


E |---------------------|
B |---------------------|
G |--------------11-11--|
D |--11-11-14-14--------|  X2
A |---------------------|
E |---------------------|

E |---------------------------------------------------|
B |---------------------------------------------------|
G |---------------------------------------------------|
D |--14-14-11-11-14-14-11-11-------11-11-14-14-11-11--|
A |--------------------------14-14--------------------|
E |---------------------------------------------------|

E |---------------------|
B |---------------------|
G |--------------11-11--|
D |--11-11-14-14--------|  x2
A |---------------------|
E |---------------------|
[ Tab from: http://www.guitaretab.com/p/project-86/96051.html ]
E |---------------------------------------------------|
B |---------------------------------------------------|
G |---------------------------------------------------|
D |--14-14-11-11-14-14-11-11-14-14-11-11-14-14-11-11--|
A |---------------------------------------------------|
E |---------------------------------------------------|

E |-----------------------------|
B |-12-14-12-14-12-14-15-14-----|
G |-----------------------------|
D |-----------------------------| x3
A |-----------------------------|
E |-----------------------------|

and then it sounds something like:

E |-12-12-14-14-12-12-14-14--           E |-12-12-14-14-12-12-12s16-16---------|
B |--------------------------           B |------------------------------------|
G |--------------------------           G |------------------------------------|
D |-------------------------- x2   then D |------------------------------------|
A |--------------------------           A |------------------------------------|
E |--------------------------           E |------------------------------------|

That's it!
Related for Slaves To Liberty tab