Guitaretab - guitar tabs
Song name
# A B C D E F G H I J K L M N O P Q R S T U V W X Y Z

Project Wyze - I Dont Want The World To See Me tab

Mostly done ill get back to it. Whats there is right tho

Riff 1 (gtr. 1)
-|-----------------|-
-|-----------------|-
-|---------4-------|-
-|---4-6-4---4-6-4-|-
-|-4---------------|-
-|-----------------|- 
 |pm..............              
 |(Gtr. 2)           
 |                   
-|-4-------4-------|-
-|---5---5---5---4-|-
-|-----6-------6---|-
-|-----------------|-
-|-----------------|-
-|-----------------|-
[ Tab from: http://www.guitaretab.com/p/project-wyze/53169.html ]
Riff 2
-|----------------------------------------------------------------|-
-|----------------------------------------------------------------|-
-|-6-6-6-6-6-6-6--9-9-9--9--9-9-----------------------------------|-
-|-6-6-6-6-6-6-6--9-9-9--9--9-9--7-7-7-7--7--7-7-7--9-9-9--9--9-9-|-
-|-4-4-4-4-4-4-4--7-7-7--7--7-7--7-7-7-7--7--7-7-7--9-9-9--9--9-9-|-
-|-------------------------------5-5-5-5--5--5-5-5--7-7-7--7--7-7-|-
*This is only gtr. 1's part sorry

Riff 3
-|-----------------|-----------------|-----------------|----------------|-
-|-----------------|-----------------|-----------------|----------------|-
-|---------4-4-----|---------6-------|---------2---1---|---------2------|-
-|-----6-------6---|-----6-------6---|-----2-----2---2-|-----4-----4---2|-
-|-4-4---4-------4-|-7-7---7---7---7-|-0-0---0---------|-2-2---2-----2--|-
-|-----------------|-----------------|-----------------|----------------|-
Related for I Dont Want The World To See Me tab
Advertisement will be closed in 10 seconds