Song name
# A B C D E F G H I J K L M N O P Q R S T U V W X Y Z

Proletaryat - Przemijanie tab

----------------------------------------------------------------------------
			     Przemijanie - Proletaryat
----------------------------------------------------------------------------
Tabbed by: Anorax
Email: anorax.isa@gmail.com

Band - Proletaryat
Song - Przemijanie
Album - IV

Tuning: Standard

 / slide up

Verse riff:

e|-----------------0----------------------------------------0---------------|
B|-----------1--0--------------------1----------------1--0------------------|
G|--------2--------------------0--2----------------2------------------------|
D|-----2------------------2/3------------------2----------------------------|
A|--0---------------------------------------0-------------------------------|
E|--------------------------------------------------------------------------|

e|--------------------------------------------------------------------------|
B|---------------1----------------------------------------------------------|
G|---------0--2--------2----------------------------------------------------|
D|---2/3------------0-------------------------------------------------------|
A|--------------------------------------------------------------------------|
E|--------------------------------------------------------------------------|



Chorus riff:
e|--------------------------------------------------------------------------|
B|--------------------------------------------------------------------------|
G|--------------------------------------------------------------------------|
D|---7--------7---7---10--------10---10---3--------3---3---5--------6-------|
A|---7--------7---7---10--------10---10---3--------3---3---5--------6-------|
E|---5----------------8-------------------1----------------3--------4-------|

e|--------------------------------------------------------------------------|
B|--------------------------------------------------------------------------|
G|--------------------------------------------------------------------------|
D|---7--------7---7---10--------10---10---3--------3---3---5-5-5-5--6-6-6-6-|
A|---7--------7---7---10--------10---10---3--------3---3---5-5-5-5--6-6-6-6-|
E|---5----------------8-------------------1----------------3-3-3-3--4-4-4-4-|


Please, email me if there are some mistakes.

Proletaryat's website: http://www.proletaryat.com.pl/
Tap to rate this tab
# A B C D E F G H I J K L M N O P Q R S T U V W X Y Z