Song name
# A B C D E F G H I J K L M N O P Q R S T U V W X Y Z

Prometheus - Mind Politics tab

Standard tuning (EADGBe)      *= Pinched harmonic
Main Riff (Chorus)
|---------------------------------------------------------------------|
|---------------------------------------------------------------------|
|---------------------------------------------------------------------|
|----4-4-5-2-4-4------------------------------------------------------|
|----4-4-5-2-4-4------------------------------------------------------|
|----2-2-3-0-2-2------------------------------------------------------|

Verse (After the bass Bit)
|---------------------------------------------------------------------|
|---------------------------------------------------------------------|
|---------------------------------------------------------------------|
|----------14--14*~---------14--14*~-------14--14*~---------14--14*~/-|
|---------------------------------------------------------------------|
|----12-12---12-------12-12---12-----12-12---12-------12-12---12------|

Tap to rate this tab
# A B C D E F G H I J K L M N O P Q R S T U V W X Y Z