Song name
# A B C D E F G H I J K L M N O P Q R S T U V W X Y Z

Promise Of Redemption - How Fast tab

Myspace.com/PromiseOfRedemption

This is an amazing song from the lead singer of a band called Valencia. I get so many
on Youtube.com for this tab because I accidentally said I knew how to play it haha. It's
good hope you guys enjoy. Love feedback and comments.


The original is Half step down tuning. This is in standard.


Tabbed by:Guitarist of Gingerly/If Only Autumn
Email:ReignStarz@Yahoo.com

Tuning: Standard E-A-D-G-B-E

Intro

e|---------------------------------------------------------------------------|
B|---------------------------------------------------------------------------|
G|-3-----3------2-----2------------0-----0------2------------------------x 2-|
D|---2------------0-------------0----0----------------------0----------------|
A|-----1------------1-------1-1--------1-----1------1-----1---1--------------|
e|---------3-0-----------3-----------------0------------0--------------------|

E|----------------------------------------------0----------------------------|
A|----------------------------------------------0----------------------------|
D|-3-----3------2-----2------------0-----0------3----------------------------|x1
G|---2------------0-------------0----0----------2----------------------------|
B|-----1------------1-------1-1--------1-----1--1----------------------------|
e|---------3-0-----------3-----------------0----0----------------------------|

How fast can you have your bags packed? I'm ready to blow this


Town.

Bridge
E|-0--00-3---33--------|
A|-0--00-2---22--------|
D|-3--33-0---00--------|x3 -Remember your ring finger slide. Listen 4 strum
G|-2--22-0---00--------|
B|-1--11-3---333/5-1---|
e|-0--00-3---33--------|

On the fourth time.


E|-0--00-3---3---3333-----|
A|-0--00-2---2---2222-----|
D|-3--33-0---0---0000-----|x3 The last 4 G chords are strummed super fast
G|-2--22-0---0---0000-----|
B|-1--11-3---3---2222-----|
e|-0--00-3---3---3333-----|


Verse
E|-0----3---------|
A|-0----2---------|
D|-3x16-0x16------|
G|-2----0---------| -Listen for strum again and pattern.
B|-1----3---------|
e|-0----3---------|

Bridge
E|-0--00-3---33--------|
A|-0--00-2---22--------|
D|-3--33-0---00--------|x3 - Too upset to describe, how when I close my eyes
G|-2--22-0---00--------|
B|-1--11-3---333/5-1---|
e|-0--00-3---33--------|

On the fourth time.


E|-0--00-3---3---3-3-3-3-----|
A|-0--00-2---2---2-2-2-2-----|
D|-3--33-0---0---0-0-0-0-----|x3 - Don't play the Gchord fast.
G|-2--22-0---0---0-0-0-0-----|
B|-1--11-3---3---2-2-2-2-----|
e|-0--00-3---3---3-3-3-3-----|

Chorus
E|--0------0------3---------|
A|--0------3------2---------|
D|--3------2------0---------|x4 - How fast can you have your bags packed.
G|--2x4----0x4----0x8-------|
B|--1------1------3---------|
e|--0------0------3---------|

Verse
E|-0----3---------|
A|-0----2---------|
D|-3x16-0x16------|
G|-2----0---------| - I'm so mad that I never got to say goodbye.
B|-1----3---------|
e|-0----3---------|

Bridge
E|-0--00-3---33--------|
A|-0--00-2---22--------|
G|-2--22-0---00--------| - How when I look into your eyes.
B|-1--11-3---333/5-1---|
e|-0--00-3---33--------|

On the fourth time.


E|-0--00-3---3---3-3-3-3-----|
A|-0--00-2---2---2-2-2-2-----|
D|-3--33-0---0---0-0-0-0-----|x3 - Slow the chords at the end.
G|-2--22-0---0---0-0-0-0-----|
B|-1--11-3---3---2-2-2-2-----|
e|-0--00-3---3---3-3-3-3-----|


Break Doooown - It's hard to hear what goes on here because he uses his vocals. But try 
play this.

E|--0--------------------0----------------------------|
A|--0--------------------3----------------------------|
D|--3--------------------2----------------------------| - Last night.
G|--2---------2----------0---------0------------------|
B|--1-----1---------1----1-----1---------1------------|
e|--0--3--------3--------0--3---------3---------------|
                                                       \  x 2
                                                       /

E|--3--------------------3----------------------------|
A|--2--------------------3----------------------------|
D|--0--------------------0----------------------------| - There we were.
G|--0---------0----------0----------0-----------------|
B|--3-----3---------3----3------3------------3--------|
e|--3--3--------3--------3---3-----------3------------|

E|--3-3-3-3-3----------------|
A|--2-2-2-2-2----------------|
D|--0-0-0-0-0----------------| - And never want to wake up.
G|--0-0-0-0-0----------------|
B|--3-3-3-3-3----------------|
e|--3-3-3-3-3----------------|

Chorus
E|--0------0------3---------|
A|--0------3------2---------|
D|--3------2------0---------|x3 - How fast can you have your bags packed.
G|--2x4----0x4----0x8-------|
B|--1------1------3---------|
e|--0------0------3---------|

Chorus
E|--0------0------3---------|
A|--0------3------2---------|
D|--3------2------0---------|x1 - It's just another thought of you and I.
G|--2x4----0x4----0x1-------|
B|--1------1------3---------|
e|--0------0------3---------|


Outro - So we'll blame it. On learning.
E|--------------------------------------------------------------|
A|--------------------------------------------------------------|
D|--3-------------------------------2---------------------------|
G|----2---------2------2------2-------0---------0-----0-----0---|
B|------1--1--1---1--1---1--1---1-------1---1-1---1-1---1-1---1-|
e|---------3--3---0--0---3--3---0-----------3-3---0-0---3-3---0-|

Play it till the end of the song. That's it.

If you have any questions or comments.

Reignstarz @ yahoo Dot. com


How fast can you have your bags packed?
I'm ready to blow this town

Cause this feeling is getting too hard to explain
When it seems like months that you and I have been away
From each other's arms it's only been days
And I, I count down seconds till these play rites will save me
From a feeling I feel that has certainly made me
Oh, you know it's certainly made me
Too upset to describe, how when I close my eyes
You're sitting right beside me on this bed here tonight
You know I'd have to say to you

How fast can you have your bags packed?
I'm ready to blow this town
Friendships are less important, I'm going to feel let down
Cause one thing, between road signs and street lights
When I shut my eyes to the world outside
It's just another thought of you and I

I'm so mad that I never got to say goodbye
And I all can do is sit here and wonder why
You were taken from my life
And as I count down seconds till I see you again
I've got our memories in my head
And I just can't seem to understand
(So now I'll understand)
How when i look into your eyes
I could always realize
That you and I could have been together for all times
You know I'd have to say to you

How fast can you have your bags packed?
I'm ready to blow this town
Friendships are less important , I'm going to feel let down
Cause one thing, between road signs and street lights
When I shut my eyes to the world outside
It's just another thought of you and I

Last night I had this dream, it was the most amazing thing
There we were sitting side by side, just like the past 12 months
And in a sea of wishful thinking, you know I pray to God
I might spend forever in this moment and never have to wake up

How fast can you have your bags packed?
I'm ready to blow this town
Friendships are less important , I'm going to feel let down
Cause one thing, besides road signs and street lights
When I shut my eyes to the world outside
It's just another thought of you and I

So we'll blame it on learning, It gets harder with time
But even with distance, I know true love will survive
So we'll blame it on learning, it gets harder with time
But even with distance, I know true love will survive

| /  slide up
| \  slide down
| h  hammer-on
| p  pull-off
| ~  vibrato
| +  harmonic
| x  Mute note
Tap to rate this tab
# A B C D E F G H I J K L M N O P Q R S T U V W X Y Z