Song name
# A B C D E F G H I J K L M N O P Q R S T U V W X Y Z

Promise Of Redemption - It Just Takes Times tab

Couldn't find a single tab out there on this one. This sounds pretty decent to me
for just playing it with a single guitar. Input welcome. Still haven't worked out the
 bridge yet. Standard tuning or half step down both work.

Intro/Verse

  So maybe this time...
e---------------------------------------|
b---------3p2------3s5s3-------3p2------|
e-------2-----2-------------2------2----|
d-----0---------0-----------------------|
a---------------------------------------|
E-------------------------3----------3--|


...you can't find reasoning
e---------------------------------------|
b---------------------------------0-----|
e----------7---7------6---6-----2---2---|
d------------9----------7---------------|
a---------------------------------------|
E--------7----------5---------3---------|

 I've been spending these..
e---------------------------------------|
b---------3p2------3s5s3-------3p2------|
e-------2-----2-------------2------2----|
d-----0---------0-----------------------|
a---------------------------------------|
E-------------------------3----------3--|

..where ever I go...
e---------------------------------------|
b---------3p2------3s5s3-------3p2------|
e-------2-----2-------------2------2----|
d-----0---------0-----------------------|
a---------------------------------------|
E-------------------------3----------3--|


She's inside.......... of my head    X2
e-----0------------0---------|
b-----3------------3---------|
e-----2------------2---------|
d-----0------------0---------|
a------------------x---------|
E------------------3---------|

we all need..........Something to (repeat until chorus)
e------------------------------------|
b------------------------------------|
e--------7----------6---------4------|
d--------9----------7---------5------|
a--------X----------X---------X------|
E--------7----------5---------3------|

CHORUS
 it's ok..  Cuz we'll be fine..let me remind.. (repeat for chorus)
e------0--------2------------0------------|
b------3--------3------------3------------|
e------2--------4------------2------------|
d------0--------4------------2------------|
a------X--------2------------0------------|
E------3--------2------------0------------|

(end on)..I guess it just takes time
e------0------|
b------3------|
e------2------|
d------0------|
a------X------|
E------3------|
Tap to rate this tab
# A B C D E F G H I J K L M N O P Q R S T U V W X Y Z