Song name
# A B C D E F G H I J K L M N O P Q R S T U V W X Y Z

Promise Ring - Skips A Beat Over You tab

-----------------------------------------------------------------
The Promise Ring - Skips A Beat (Over You)
-----------------------------------------------------------------
Tabbed by: Noel Padilla 	
Email: integrity.before.profit@gmail.com

My girlfriend really likes this song and I tried to look for a tab for it,
but couldn't come across one, except for some really horrible one that made
no sense at all. So I just decided to make one! So now when some love struck
sap, much like myself, wants to sing it to his girlfriend, he will have the
proper tools. Enjoy!



You're going to have to figure out the strumming, I didnt feel like tabbing
all that out. It's easy though

Tuning:Stanard


Intro

e|---------------------------------------------------------------|
B|---------------------------------------------------------------|
G|--8------------------------------------------------------------|
D|--8------------------------------------------------------------|
A|--6------------------------------------------------------------|
E|---------------------------------------------------------------|

Verse
e|---------------------------------------------------------------|
B|---------------------------------------------------------------|
G|---------------------------------------------------------------|
D|--6----------------------------------8-------------------------|
A|--6----------------------------------8-------------------------|
E|--4----------------------------------6-------------------------|
    My girls car 'round the corner on Clarke.
e|---------------------------------------------------------------|
B|---------------------------------------------------------------|
G|---------------------------------------------------------------|
D|--6----------------------------------8-------------------------|
A|--6----------------------------------8-------------------------|
E|--4----------------------------------6-------------------------|
   She's in the window as its getting dark,
e|---------------------------------------------------------------|
B|---------------------------------------------------------------|
G|---------------------------------------------------------------|
D|--6----------------------------------8-------------------------|
A|--6----------------------------------8-------------------------|
E|--4----------------------------------6-------------------------|
   She's in the window as its getting dark,
e|---------------------------------------------------------------|
B|---------------------------------------------------------------|
G|-----------------------------8---------------------------------|
D|-----------------------------8---------------------------------|
A|-----------------------------6---------------------------------|
E|---------------------------------------------------------------|
  hope I'll be in there after dark.

Chorus
e|---------------------------------------------------------------|
B|---------------------------------------------------------------|
G|----------------------------------------5----------------------|
D|------------------6----------8----------5----------------8-----|
A|------------------6----------8----------3----------------8-----|
E|------------------4----------6---------------------------6-----|
 So wouldn't it be nice if we could live twice in just one life
e|---------------------------------------------------------------|
B|---------------------------------------------------------------|
G|----------------------------------------8----------------------|
D|--------------6------------8------------8-------------6--------|
A|--------------6------------8------------6-------------6--------|
E|--------------4------------6--------------------------4--------|
  and then we'd know what to do when I'm shaking in my shoes
e|---------------------------------------------------------------|
B|---------------------------------------------------------------|
G|---------------------------------8-----------------------------|
D|---------------8-----------------8-----------------------------|
A|---------------8-----------------6-----------------------------|
E|---------------6-----------------------------------------------|
  and my heart skips a beat over you.


Verse
e|---------------------------------------------------------------|
B|---------------------------------------------------------------|
G|---------------------------------------------------------------|
D|--6----------------------------------8-------------------------|
A|--6----------------------------------8-------------------------|
E|--4----------------------------------6-------------------------|
    My girls car 'round the corner on Clarke.
e|---------------------------------------------------------------|
B|---------------------------------------------------------------|
G|---------------------------------------------------------------|
D|--6----------------------------------8-------------------------|
A|--6----------------------------------8-------------------------|
E|--4----------------------------------6-------------------------|
   She's in the window as its getting dark,
e|---------------------------------------------------------------|
B|---------------------------------------------------------------|
G|---------------------------------------------------------------|
D|--6----------------------------------8-------------------------|
A|--6----------------------------------8-------------------------|
E|--4----------------------------------6-------------------------|
   She's in the window as its getting dark,
e|---------------------------------------------------------------|
B|---------------------------------------------------------------|
G|-----------------------------8---------------------------------|
D|-----------------------------8---------------------------------|
A|-----------------------------6---------------------------------|
E|---------------------------------------------------------------|
  hope I'll be in there after dark.


Chorus
e|---------------------------------------------------------------|
B|---------------------------------------------------------------|
G|----------------------------------------5----------------------|
D|------------------6----------8----------5----------------8-----|
A|------------------6----------8----------3----------------8-----|
E|------------------4----------6---------------------------6-----|
 So wouldn't it be nice if we could live twice in just one life
e|---------------------------------------------------------------|
B|---------------------------------------------------------------|
G|----------------------------------------8----------------------|
D|--------------6------------8------------8-------------6--------|
A|--------------6------------8------------6-------------6--------|
E|--------------4------------6--------------------------4--------|
  and then we'd know what to do when I'm shaking in my shoes
e|---------------------------------------------------------------|
B|---------------------------------------------------------------|
G|---------------------------------8-----------------------------|
D|---------------8-----------------8-----------------------------|
A|---------------8-----------------6-----------------------------|
E|---------------6-----------------------------------------------|
  and my heart skips a beat over you.


Bridge
e|---------------------------------------------------------------|
B|---------------------------------------------------------------|
G|------------------55--55--55--55------------------55--55-------|
D|--66--66--66--66--55--55--55--55--66--66--66--66--55--55--8~~--|
A|--66--66--66--66--33--33--33--33--66--66--66--66--33--33--8~~--|
E|--44--44--44--44------------------44--44--44--44----------6~~--|


Ending Chorus (A LITTLE DIFFERENT)
e|---------------------------------------------------------------|
B|---------------------------------------------------------------|
G|----------------------------------------5----------------------|
D|------------------6----------8----------5----------------8-----|
A|------------------6----------8----------3----------------8-----|
E|------------------4----------6---------------------------6-----|
 So wouldn't it be nice if we could live twice in just one life
Chorus
e|---------------------------------------------------------------|
B|---------------------------------------------------------------|
G|----------------------------------------5----------------------|
D|------------------6----------8----------5----------------8-----|
A|------------------6----------8----------3----------------8-----|
E|------------------4----------6---------------------------6-----|
 So wouldn't it be nice if we could live twice in just one life
e|---------------------------------------------------------------|
B|---------------------------------------------------------------|
G|----------------------------------------8----------------------|
D|--------------6------------8------------8-------------6--------|
A|--------------6------------8------------6-------------6--------|
E|--------------4------------6--------------------------4--------|
  and then we'd know what to do when I'm shaking in my shoes
e|---------------------------------------------------------------|
B|---------------------------------------------------------------|
G|---------------------------------------------------------------|
D|---------------8----------------6------------------------------|
A|---------------8----------------6------------------------------|
E|---------------6----------------4------------------------------|
  and my heart skips a beat over you. 
e|---------------------------------------------------------------|
B|---------------------------------------------------------------|
G|---------------------8-----------------------------------------|
D|--------8------------8-------------6---------------------------|
A|--------8------------6-------------6---------------------------|
E|--------6--------------------------4---------------------------|
  what to do when I'm shaking in my shoes
e|---------------------------------------------------------------|
B|---------------------------------------------------------------|
G|---------------------------------------------------------------|
D|---------------8----------------6------------------------------|
A|---------------8----------------6------------------------------|
E|---------------6----------------4------------------------------|
  and my heart skips a beat over you.
e|---------------------------------------------------------------|
B|---------------------------------------------------------------|
G|---------------------8-----------------------------------------|
D|--------8------------8-------------6---------------------------|
A|--------8------------6-------------6---------------------------|
E|--------6--------------------------4---------------------------|
  what to do when I'm shaking in my shoes
e|---------------------------------------------------------------|
B|---------------------------------------------------------------|
G|---------------------------------8-----------------------------|
D|---------------8-----------------8-----------------------------|
A|---------------8-----------------6-----------------------------|
E|---------------6-----------------------------------------------|
  and my heart skips a beat over you.


| /  slide up
| \  slide down
| h  hammer-on
| p  pull-off
| ~  vibrato
| +  harmonic
| x  Mute note
Tap to rate this tab
# A B C D E F G H I J K L M N O P Q R S T U V W X Y Z