Song name
# A B C D E F G H I J K L M N O P Q R S T U V W X Y Z

Promise Ring - American Girl tab

Song: American Girl
Band: The Promise Ring
Album: Boys + Girls EP
Year: 1998

|-------------------------------------------|
|-----------1-------------------------------|
|---------0----0-2--------------------------| 
|----5h7------------------------------------|
|-------------------------------------------|
|-------------------------------------------|


|-----------0-------------------------------|
|--------1----1-----------------------------|
|-----0---------0---------------------------| 
|--3----------------------------------------|
|-------------------------------------------|
|-------------------------------------------|

|---------0------|--------0--------|
|-------1---1----|------1---1------|
|----0--------0--|----0-------0----|
|--2-------------|--0-----------0--|
|----------------|-----------------|
|----------------|-----------------|
Tap to rate this tab
 
# A B C D E F G H I J K L M N O P Q R S T U V W X Y Z