Song name
# A B C D E F G H I J K L M N O P Q R S T U V W X Y Z

Promise Ring - Happiness Is All The Rage tab

Title: Happiness is all the rage
Album: Very Emergency
Tabbed by: Kris Johansen - krisjohansen@usa.net

intro/chorus

e----------------------------------------------------------------------|
B----------------------------------------------------------------------|
G----------------------------------------------------------------------|
D--7--7--7--7--7--7--7--7--4--4--4--4--2--2--2--2--7--7--7--7----------|
A--4--4--4--4--5--5--5--5--2--2--2--2--0--0--0--0--4--4--4--4----------|
E----------------------------------------------------------------------|


e-------------|---------------|
B-------------|---------------|
G-------------|---------------|
D--7--7--7--7-|-9-9-xx-9-9-9--| For the intro Play the whole thing twice, on the second time
A--5--5--5--5-|-7-7-xx-7-7-7--| hold the D chord. In the chorus it goes to the E. Get me?
E-------------|---------------|

Little bit before singing starts.

e------------------------------------|
B------------------------------------|
G------------------------------------|
D-------------------7-7-7-7-7-7-7-7--|
A--7-7-7-7-7-7-7-7--5-5-5-5-5-5-5-5--|
E--5-5-5-5-5-5-5-5-------------------|

Verse chords (you do the rhythm from here buddy)

e----|---|----|----|---|---|
B----|---|----|----|---|---|
G----|---|----|----|---|-9-|
D----|-7-|----|--11|-4-|-9-|
A--7-|-5-|--7-|--9-|-2-|-7-|
E--5-|---|--5-|----|---|-7-|

Bridge(of sorts)

   "yeah now its alright between us"
e----------------------------------------------------------------------|
B----------------------------------------------------------------------|
G----------------------------------------------------------------------|
D--11--4--9------------------------------------------------------------|
A--9---2--7------------------------------------------------------------|
E----------------------------------------------------------------------|

Outro

"happiness is all the rage"  Song ends on the A.

e---------|-------------------------------------------------------------|
B---------|-------------------------------------------------------------|
G---------|-------------------------------------------------------------|
D-----7---|-------------------------------------------------------------|
A--7--5---|--9-9-7-7-5-5-4-4-2------------------------------------------|
E--5------|-------------------------------------------------------------|
             
             Little descending part(not 100% sure on that. when my amp
                is back ill check it out and update if necessary.)

This song has neat drumming. the beat in the verse changes slightly every couple of
bars.
Tap to rate this tab
# A B C D E F G H I J K L M N O P Q R S T U V W X Y Z