Song name
# A B C D E F G H I J K L M N O P Q R S T U V W X Y Z

Promise Ring - E Texas Ave tab

Artist: The Promise Ring  
Title: East Texas Avenue  
Tabbed by: Liam Murphy (knifeinthemarathon@msn.com)      


E|-----------0---------------0---------------0---------------0---------------||
B|-------3---------------3---------------3---------------3-------------------||
G|---0-----------0---0-----------0---0-----------0---0-----------0-----------||
D|---------------------------------------------------------------------------||
A|-3---3---3---3---3---3---3---3---3---3---3---3---3---3---3---3-------------||
E|---------------------------------------------------------------------------||


E|---------------------------------------------------------------------------||
B|---------------------------------------------------------------------------||
G|-5-5-5-5-5--5-5--5-5--9-9--9-9---------------------------------------------||
D|-5-5-5-5-5--5-5--5-5--9-9--9-9---------------------------------------------||
A|-3-3-3-3-3--3-3--3-3--7-7--7-7---------------------------------------------||
E|-3-3-3-3-3--3-3--3-3--7-7--7-7---------------------------------------------||

E|---------------------------------------------------------------------------||
B|---------------------------------------------------------------------------||
G|-5-5--5-5--5-5--5-5--9-9--9-9----------------------------------------------||
D|-5-5--5-5--5-5--5-5--9-9--9-9----------------------------------------------||
A|-3-3--3-3--3-3--3-3--7-7--7-7----------------------------------------------||
E|-3-3--3-3--3-3--3-3--7-7--7-7----------------------------------------------||

E|---------------------------------------------------------------------------||
B|---------------------------------------------------------------------------||
G|-5-5--5-5--5-5--5-5--9-9--9-9----------------------------------------------||
D|-5-5--5-5--5-5--5-5--9-9--9-9----------------------------------------------||
A|-3-3--3-3--3-3--3-3--7-7--7-7----------------------------------------------||
E|-3-3--3-3--3-3--3-3--7-7--7-7----------------------------------------------||

E|---------------------------------------------------------------------------||
B|---------------------------------------------------------------------------||
G|-5-5--5-5--5-5--5-5--9-9--9-9----------------------------------------------||
D|-5-5--5-5--5-5--5-5--9-9--9-9----------------------------------------------||
A|-3-3--3-3--3-3--3-3--7-7--7-7----------------------------------------------||
E|-3-3--3-3--3-3--3-3--7-7--7-7----------------------------------------------||

E|---------------------------------------------------------------------------||
B|---------------------------------------------------------------------------||
G|-5-5--5-5--5-5--5-5--9-9--9-9----------------------------------------------||
D|-5-5--5-5--5-5--5-5--9-9--9-9----------------------------------------------||
A|-3-3--3-3--3-3--3-3--7-7--7-7----------------------------------------------||
E|-3-3--3-3--3-3--3-3--7-7--7-7----------------------------------------------||

E|---------------------------------------------------------------------------||
B|---------------------------------------------------------------------------||
G|-5-5--5-5--5-5--5-5--9-9--9-9----------------------------------------------||
D|-5-5--5-5--5-5--5-5--9-9--9-9----------------------------------------------||
A|-3-3--3-3--3-3--3-3--7-7--7-7----------------------------------------------||
E|-3-3--3-3--3-3--3-3--7-7--7-7----------------------------------------------||

E|---------------------------------------------------------------------------||
B|---------------------------------------------------------------------------||
G|-5-5--5-5--5-5--5-5--9-9--9-9----------------------------------------------||
D|-5-5--5-5--5-5--5-5--9-9--9-9----------------------------------------------||
A|-3-3--3-3--3-3--3-3--7-7--7-7----------------------------------------------||
E|-3-3--3-3--3-3--3-3--7-7--7-7----------------------------------------------||

E|---------------------------------------------------------------------------||
B|---------------------------------------------------------------------------||
G|-5-5--5-5--5-5--5-5--9-9--9-9----------------------------------------------||
D|-5-5--5-5--5-5--5-5--9-9--9-9----------------------------------------------||
A|-3-3--3-3--3-3--3-3--7-7--7-7----------------------------------------------||
E|-3-3--3-3--3-3--3-3--7-7--7-7----------------------------------------------||


E|---------------------------------------------------------------------------||
B|---------------------------------------------------------------------------||
G|-5-5-5-5-5-5-5-5-5-5--10-10-11-11-9-9-7-7----------------------------------||
D|-5-5-5-5-5-5-5-5-5-5-------------------------------------------------------||
A|-3-3-3-3-3-3-3-3-3-3--12-12--9--9-7-7-5-5----------------------------------||
E|-3-3-3-3-3-3-3-3-3-3-------------------------------------------------------||

E|---------------------------------------------------------------------------||
B|---------------------------------------------------------------------------||
G|-5-5-5-5-5-5-5-5-5-5--10-10-11-11-9-9-7-7----------------------------------||
D|-5-5-5-5-5-5-5-5-5-5-------------------------------------------------------||
A|-3-3-3-3-3-3-3-3-3-3--12-12--9--9-7-7-5-5----------------------------------||
E|-3-3-3-3-3-3-3-3-3-3-------------------------------------------------------||

E|---------------------------------------------------------------------------||
B|---------------------------------------------------------------------------||
G|-5-5-5-5-5-5-5-5-5-5--10-10-11-11-9-9-7-7----------------------------------||
D|-5-5-5-5-5-5-5-5-5-5-------------------------------------------------------||
A|-3-3-3-3-3-3-3-3-3-3--12-12--9--9-7-7-5-5----------------------------------||
E|-3-3-3-3-3-3-3-3-3-3-------------------------------------------------------||

E|---------------------------------------------------------------------------||
B|---------------------------------------------------------------------------||
G|-5-5-5-5-5-5-5-5-5-5--10--11-----------------------------------------------||
D|-5-5-5-5-5-5-5-5-5-5-------------------------------------------------------||
A|-3-3-3-3-3-3-3-3-3-3--12---9-----------------------------------------------||
E|-3-3-3-3-3-3-3-3-3-3-------------------------------------------------------||


E|-----------0--------0--------------0--------0------------------------------||
B|--------12------------12--------12------------12---------------------------||
G|------0-----------0-----------0-----------0--------------------------------||
D|----9-----------9-----------9-----------9----------------------------------||
A|-10----------10----------10----------10------------------------------------||
E|---------------------------------------------------------------------------||

E|-----------0--------0--------------0--------0------------------------------||
B|--------12------------12--------12------------12---------------------------||
G|------0-----------0-----------0-----------0--------------------------------||
D|----9-----------9-----------9-----------9----------------------------------||
A|-10----------10----------10----------10------------------------------------||
E|---------------------------------------------------------------------------||

E|---------------------------------------------------------------------------||
B|---------------------------------------------------------------------------||
G|-5-5-5-5-5-5-5-5-----------------------------------------------------------||
D|-5-5-5-5-5-5-5-5-----------------------------------------------------------||
A|-3-3-3-3-3-3-3-3-----------------------------------------------------------||
E|-3-3-3-3-3-3-3-3-----------------------------------------------------------||


E|---------------------------------------------------------------------------||
B|---------------------------------------------------------------------------||
G|-5-5--5-5--5-5--5-5--9-9--9-9----------------------------------------------||
D|-5-5--5-5--5-5--5-5--9-9--9-9----------------------------------------------||
A|-3-3--3-3--3-3--3-3--7-7--7-7----------------------------------------------||
E|-3-3--3-3--3-3--3-3--7-7--7-7----------------------------------------------||

E|---------------------------------------------------------------------------||
B|---------------------------------------------------------------------------||
G|-5-5--5-5--5-5--5-5--9-9--9-9----------------------------------------------||
D|-5-5--5-5--5-5--5-5--9-9--9-9----------------------------------------------||
A|-3-3--3-3--3-3--3-3--7-7--7-7----------------------------------------------||
E|-3-3--3-3--3-3--3-3--7-7--7-7----------------------------------------------||

E|---------------------------------------------------------------------------||
B|---------------------------------------------------------------------------||
G|-5-5--5-5--5-5--5-5--9-9--9-9----------------------------------------------||
D|-5-5--5-5--5-5--5-5--9-9--9-9----------------------------------------------||
A|-3-3--3-3--3-3--3-3--7-7--7-7----------------------------------------------||
E|-3-3--3-3--3-3--3-3--7-7--7-7----------------------------------------------||

E|---------------------------------------------------------------------------||
B|---------------------------------------------------------------------------||
G|-5-5--5-5--5-5--5-5--9-9--9-9----------------------------------------------||
D|-5-5--5-5--5-5--5-5--9-9--9-9----------------------------------------------||
A|-3-3--3-3--3-3--3-3--7-7--7-7----------------------------------------------||
E|-3-3--3-3--3-3--3-3--7-7--7-7----------------------------------------------||

E|---------------------------------------------------------------------------||
B|---------------------------------------------------------------------------||
G|-5-5--5-5--5-5--5-5--9-9--9-9----------------------------------------------||
D|-5-5--5-5--5-5--5-5--9-9--9-9----------------------------------------------||
A|-3-3--3-3--3-3--3-3--7-7--7-7----------------------------------------------||
E|-3-3--3-3--3-3--3-3--7-7--7-7----------------------------------------------||


E|---------------------------------------------------------------------------||
B|---------------------------------------------------------------------------||
G|-5-5-5-5-5-5-5-5-5-5--10-10-11-11-9-9-7-7----------------------------------||
D|-5-5-5-5-5-5-5-5-5-5-------------------------------------------------------||
A|-3-3-3-3-3-3-3-3-3-3--12-12--9--9-7-7-5-5----------------------------------||
E|-3-3-3-3-3-3-3-3-3-3-------------------------------------------------------||

E|---------------------------------------------------------------------------||
B|---------------------------------------------------------------------------||
G|-5-5-5-5-5-5-5-5-5-5--10-10-11-11-9-9-7-7----------------------------------||
D|-5-5-5-5-5-5-5-5-5-5-------------------------------------------------------||
A|-3-3-3-3-3-3-3-3-3-3--12-12--9--9-7-7-5-5----------------------------------||
E|-3-3-3-3-3-3-3-3-3-3-------------------------------------------------------||

E|---------------------------------------------------------------------------||
B|---------------------------------------------------------------------------||
G|-5-5-5-5-5-5-5-5-5-5--10-10-11-11-9-9-7-7----------------------------------||
D|-5-5-5-5-5-5-5-5-5-5-------------------------------------------------------||
A|-3-3-3-3-3-3-3-3-3-3--12-12--9--9-7-7-5-5----------------------------------||
E|-3-3-3-3-3-3-3-3-3-3-------------------------------------------------------||

E|---------------------------------------------------------------------------||
B|---------------------------------------------------------------------------||
G|-5-5-5-5-5-5-5-5-5-5--10-10-11-11-9-9-7-7----------------------------------||
D|-5-5-5-5-5-5-5-5-5-5-------------------------------------------------------||
A|-3-3-3-3-3-3-3-3-3-3--12-12--9--9-7-7-5-5----------------------------------||
E|-3-3-3-3-3-3-3-3-3-3-------------------------------------------------------||


E|---------------------------------------------------------------------------||
B|---------------------------------------------------------------------------||
G|-5-5--5-5--5-5--5-5--9-9--9-9----------------------------------------------||
D|-5-5--5-5--5-5--5-5--9-9--9-9----------------------------------------------||
A|-3-3--3-3--3-3--3-3--7-7--7-7----------------------------------------------||
E|-3-3--3-3--3-3--3-3--7-7--7-7----------------------------------------------||

E|---------------------------------------------------------------------------||
B|---------------------------------------------------------------------------||
G|-5-5--5-5--5-5--5-5--9-9-9-------------------------------------------------||
D|-5-5--5-5--5-5--5-5--9-9-9-------------------------------------------------||
A|-3-3--3-3--3-3--3-3--7-7-7-------------------------------------------------||
E|-3-3--3-3--3-3--3-3--7-7-7-------------------------------------------------||

E|---------------------------------------------------------------------------||
B|---------------------------------------------------------------------------||
G|-5-5--5-5--5-5--5-5--9-9--9-9----------------------------------------------||
D|-5-5--5-5--5-5--5-5--9-9--9-9----------------------------------------------||
A|-3-3--3-3--3-3--3-3--7-7--7-7----------------------------------------------||
E|-3-3--3-3--3-3--3-3--7-7--7-7----------------------------------------------||

E|---------------------------------------------------------------------------||
B|---------------------------------------------------------------------------||
G|-5-5--5-5--5-5--5-5--9-9-9-9-9---------------------------------------------||
D|-5-5--5-5--5-5--5-5--9-9-9-9-9---------------------------------------------||
A|-3-3--3-3--3-3--3-3--7-7-7-7-7---------------------------------------------||
E|-3-3--3-3--3-3--3-3--7-7-7-7-7---------------------------------------------||
Tap to rate this tab
# A B C D E F G H I J K L M N O P Q R S T U V W X Y Z