Song name
# A B C D E F G H I J K L M N O P Q R S T U V W X Y Z

Promise Ring - Somebodys Done For tab

Title: Somebody's Done For
Album: 30 Degrees Everywhere
Tabbed by: Kris Johansen - krisjohansen@guitarsrule.com
Tuning: EADGBE (Standard)


Intro

e----------------------------------------------------3-----------------|
B---1-1-1-1-1--5-5---------------------0--0--0--0----1-----------------|
G---2-2-2-2-2--5-5---x--4h5-5-4h5-5-5--4--4--4--4----0-----------------|
D---3-3-3-3-3--3-3---x--3-3-3-3-3-3-3--0--0--0--0-x--2-----------------|
A--------------------x--0-0-0-0-0-0-0--2--2--2--2-x--3-----------------|
E----------------------------------------------------------------------|

verse

e----------------------------------------------------------------------|
B------------------------0------------------1----8/--------------------|
G-----------0--------------0------------0---0--------------------------|
D----------------------------0--------0-----2--------------------------|
A---0----0-----2----2-2----------3----------3--------------------------|
E----------------------------------------------------------------------|

e-------------------------------------------3--------------------------|
B------------------------0------------------1--------------------------|
G-----------0--------------0------------0---0--------------------------|
D----------------------------0--------0-----2--------------------------|
A---0----0-----2----2-2----------3----------3--------------------------|
E----------------------------------------------------------------------|

break chords

e----------------------------------------------------------------------|
B--8-------------------------------------------------------------------|
G--7---0---0-----------------------------------------------------------|
D--5---7---5-----------------------------------------------------------|
A-(7)--5---3-----------------------------------------------------------|
E----------------------------------------------------------------------|
  8x  3x   1x

next part of break

e--------------------------------|--------------------------------------|
B--------------------------------|--------------------------------------|
G--------------------------------|--------------------------------------|
D--2h3p2------2h3p2------2h3p2---|--3--2--------------------------------|
A--------3--3-------3--3--------3|-------3------------------------------|
E--------------------------------|--------------------------------------|

underneath theres another part just playing

e--5-|
B----|
G----|
D----|
A----|
E----|




"Im getting wetter to wed you"

Kinda like this:

e----------------------------------------------------------------------|
B----------------------------------------------------------------------|
G--7--7----7---7--7---7------------------------------------------------|
D--5--7----7---5--4/5/4------------------------------------------------|
A--7--5----------------------------------------------------------------|
E----------------------------------------------------------------------|


little lick at end with chords above still going.

e----------------------------------------------------------------------|
B--7h8p7----10---------------------------------------------------------|
G---------7------------------------------------------------------------|
D----------------------------------------------------------------------|
A----------------------------------------------------------------------|
E----------------------------------------------------------------------|
Tap to rate this tab
# A B C D E F G H I J K L M N O P Q R S T U V W X Y Z