Song name
# A B C D E F G H I J K L M N O P Q R S T U V W X Y Z

Promise Ring - Between Pacific Coasts tab

Title: Between Pacific Coasts
Album: 30 Degrees Everywhere
Tabbed by: Kris Johansen - krisjohansen@guitarsrule.com
Tuning: EGCGCE

Note: Love the lo-finess of this song

Intro/Main
                               "down      the      lane etc..."
Guitar 1

e----------------------------------------------------------------------|
C----------------------------------------------------------------------|
G----10---8-8-/--10--1-1-1-1-1--3-3-3-3-3--5-5-5-5-5-------------------|
C----------------------------------------------------------------------|
G----10---8-8-/--10--1-1-1-1-1--3-3-3-3-3--5-5-5-5-5-------------------|
E----------------------------------------------------------------------|

Guitar 2

e----------------------------------------------------------------------|
C----------------------------------------------------------------------|
G----10--8-8-/--10--1-1-1-1-1--8-/-10---8--8--8-/-10--8-8--------------|
C----------------------------------------------------------------------|
G----10--8-8-/--10--1-1-1-1-1--8-/-10---8--8--8-/-10--8-8--------------|
E----------------------------------------------------------------------|

Other wierder bit. -

Guitar 1 chords

e-----|-----|------|---------------------------------------------------|
C-----|-----|------|---------------------------------------------------|
G--1--|---5-|--5---|-10------------------------------------------------|
C-----|-----|------|-12------------------------------------------------|
G--1--|---5-|--6---|-10------------------------------------------------|
E-----|-----|------|---------------------------------------------------|

Guitar 2

     x2                     x2
e-------------------|------------------------|-------------------------|
C-------------------|------------------------|-------------------------|
G--8--8--8--8--x-x--|---10--10--10--10--x-x--|-------------------------|
C--------------x-x--|-------------------x-x--|-------------------------|
G--8--8--8--8--x-x--|---10--10--10--10--x-x--|-------------------------|
E-------------------|------------------------|-------------------------|


Rhythm gat drops out, guitars do this instead

"run long on broken.."
                               about 2 bars before you go back
                                to the main bit
e-----------------------|-----------------------------------------------|
C-----------------------|-----------------------------------------------|
G----10-10--12--10-etc--|-----5-5-6-5-etc-------------------------------|
C-----------------------|-----------------------------------------------|
G-----------------------|-----------------------------------------------|
E-----------------------|-----------------------------------------------|
Tap to rate this tab
# A B C D E F G H I J K L M N O P Q R S T U V W X Y Z