Song name
# A B C D E F G H I J K L M N O P Q R S T U V W X Y Z

Promise Ring - Everywhere In Denver tab

Title: Everywhere in Denver
Album: 30 Degrees Everywhere
Tabbed by: Kris Johansen - krisjohansen@guitarsrule.com

Chords for strumming

e----------------------------------------------------------------------|
C----------------------------------------------------------------------|
G----------------------------------------------------------------------|
C---7--11--------------------------------------------------------------|
G---5---9--------------------------------------------------------------|
E---8---7--------------------------------------------------------------|

I think maybe the other
guitar is going
                     and sometimes down to
e--------------|-------------------------------------------------------|
C--------------|-------------------------------------------------------|
G----5-----9---|------4------------------------------------------------|
C--------------|-------------------------------------------------------|
G----5-----9---|------4------------------------------------------------|
E--------------|-------------------------------------------------------|


that little fill

e----------------------------------------------------------------------|
C--7--7--5--4----------------------------------------------------------|
G--5--5--5--5----------------------------------------------------------|
C----------------------------------------------------------------------|
G----------------------------------------------------------------------|
E----------------------------------------------------------------------|

      x2                                            2nd time
e--------------------|----------------------|--------------------------|
C---7-7-7-7-7-5-5-5-4|--2-2-2-2-2-4-4-4-2---|-2-2-2-2-2-4-4-4----------|
G--------------------|----------------------|-----------------4--------|
C--------------------|----------------------|--------------------------|
G--------------------|----------------------|--------------------------|
E--------------------|----------------------|--------------------------|
Tap to rate this tab
 
# A B C D E F G H I J K L M N O P Q R S T U V W X Y Z