Song name
# A B C D E F G H I J K L M N O P Q R S T U V W X Y Z

Promise Ring - A Picture Postcard tab

Song Title: A Picture Postcard
Album: Falsetto Keeps Time 7"/The Horse Latitudes EP
Tabbed by: Kris Johansen - krisjohansen@guitarsrule.com


Open C Tuning (EGCGCE)

Notes: The 'h' stands for harmonics, you probably knew that.
OK, I'm more sure this is mostly right. mostly. No? I only knew that you'd
know that you didn't know that I knew. You know?

Intro/General Theme
e----------------------------------------------------------------------|
C----------------------------------------------------------------------|
G----7h---5h------7h-----12h----7h---12h---7h---5h---------------------|
C----7h---5h------7h-----12h----7h---12h---7h---5h---------------------|
G----7h---5h------7h-----12h----7h---12h---7h---5h---------------------|
E----------------------------------------------------------------------|

Jazzy guitar ditty
e--------------------------------------------------------------7--8--8-10-|
C--7--7-7-7--7-7-7--9p7---7-7-----------7--4------------------------------|
G------------------------------5---5----------7---0-----0-7//9------------|
C-------------------------------------------------------------------------|
G-------------------------------------------------------------------------|
E-------------------------------------------------------------------------|

                                   "Don't forget to kiss me......"

Verse
e---------0---------0--------------------------------------------------|
C----0----------0------0-----------------------------------------------|
G------0----0-----0------0---------7h--5h--7h----12h-------------------|
C--5-----------------------7~------7h--5h--7h----12h-------------------|
G----------------------------------7h------7h--------------------------|
E----------------------------------------------------------------------|


Climb "Couldn't you take the second bus home?"
e-----------(0)---------------------------------------------------------|
C---------------(0)-----------------------------------------------------|
G-----------------------------------------------------------------------|
C---5-5-5-5-5-5-5-5-5-5-5-5-5-5-5---------------------------------------|
G---5-5-5-5-5-5-5-5-5-5-5-5-5-5-5---------------------------------------|
E-----------------------------------------------------------------------|
   
                        
                    
Tap to rate this tab
# A B C D E F G H I J K L M N O P Q R S T U V W X Y Z