Song name
# A B C D E F G H I J K L M N O P Q R S T U V W X Y Z

Promise Ring - Perfect Lines tab

Title: Perfect Lines
Album: Nothing Feels Good
Tabbed by: Kris Johansen - krisjohansen@guitarsrule.com


Main Part

"I traced all of the letters.."
 
e----------------------------------------------------------------------|
B-------5-3------------------------------------------------------------|
G--5-5--5-5---4-5-5--5-5-5-/-12--12-12--12--10--10--10--10--9--9--9----|
D--5-5--5-5---5-5-5--5-5-5-/-12--12-12--12--10--10--10--10--10-10-10---|
A--3-3--3-3---3-3-3--3-3-3-/-10--10-10--10--8---8---8---8---8--8--8----|
E--3-3--3-3---3-3-3--3-3-3-/-10--10-10--10--8---8---8---8---8--8--8----|

~= let ring.
/=slide.

break before verse

e------|---------------------------------------------------------------|
B------|-13------------------------------------------------------------|
G--5~/-|-----/12~--12-/-10-------5~------------------------------------|
D------|-10------------------------------------------------------------|
A--3~/-|-----/10~--10-/-8--------3~------------------------------------|
E------|---------------------------------------------------------------|

verse - Guitar 1 

e----------------------------------------------------------------------|
B----------------------------------------------------------------------|
G------0----0----0----0-------0--0--0--0-----0----0----0----0----------|
D---10---10---10---10---10--9--9--9--9----12---12---12---12------------|
A----------------------------------------------------------------------|
E----------------------------------------------------------------------|

e----------------------------------------------------------------------|
B----------------------------------------------------------------------|
G------0---0---0---0-------0----0----0----0------0----0----0----0------|
D---9---9---9---9-------14---14---14---14-----10---10---10---10--------|
A----------------------------------------------------------------------|
E----------------------------------------------------------------------|

e----------------------------------------------------------------------|
B----------------------------------------------------------------------|
G-----0----0----0----0----0---0---0----0-------------------------------|
D--12---12---12---12----9---9---9---10---------------------------------| 
A----------------------------------------------------------------------|
E----------------------------------------------------------------------|

verse - Guitar 2

e---------------|
B---------------|
G--5~--4~--7~-4~| repeat x4
D---------------|
A---------------|
E---------------|


Bridge (well...kind of)

"lets talk about the sound of the phone outside of texaco..."
* = play 16x

    *  *  *  *  palm mute first time then rawk out :)
e-------------------|
B-------------------|
G---------5---------|
D---5--5--5--5------|
A---3--5--7--5------|
E------------3------|

Order:

main
break
verse
main
break
verse
bridge
main
Tap to rate this tab
 
# A B C D E F G H I J K L M N O P Q R S T U V W X Y Z