Song name
# A B C D E F G H I J K L M N O P Q R S T U V W X Y Z

Promise Ring - New Jersey Shore tab

Title: New Jersey Shore
Album: Very Emergency
Tabbed by: Kris Johansen - krisjohansen@guitarsrule.com


Intro


e----------------------|
B----------------------|
G--6-6---6-6-6---6-6-6-|
D--7-7-x-7-7-7-x-7-7-7-|
A--7-7-x-7-7-7-x-7-7-7-|
E--5-5-x-5-5-5-x-5-5-5-|

Chorus

e-------------------------------------------------------------------|
B-------------------------------------------------------------------|
G--6-6---6-6-6---6-6-6------7-7-x-7-7-7-x-7-/-9-9-x-9-9-9-----------|
D--7-7-x-7-7-7-x-7-7-7-x----7-7-x-7-7-7-x-7-/-9-9-x-9-9-9-----------|
A--7-7-x-7-7-7-x-7-7-7-x----5-5-x-5-5-5-x-5-/-7-7-x-7-7-7-----------|
E--5-5-x-5-5-5-x-5-5-5-x--------------------------------------------|

Guitar 2 with tremolo effect

e----------------------------------------------------------------------|
B----------------------------------------------------------------------|
G------------------------------------------------9-9--9-------9--------|
D------------------------------------------------9-9--9-------9--------|
A-----------------------------5-5----5-5-5--5----7-7--7--7/9--7--------|
E--5-5-5-5-5--5-5-5-----5-7-9------------------------------------------|

e----------------------------------------------------------------------|
B----------------------------------------------------------------------|
G----------------------------------------------------------------------|
D----------------------------------------------------------------------|
A-----------------------------5-5----5-5-5--5----7bend-hard!-----------|
E--5-5-5-5-5--5-5-5-----5-7-9------------------------------------------|
                                                 (maybe a foot pedal)
                                                
      
Verse chords

   A  D  E   Bm
e-----------------------------------------------------------------------|
B------------7----------------------------------------------------------|
G-----7--9---9----------------------------------------------------------|
D--7--7--9---9----------------------------------------------------------|
A--7--5--7---7----------------------------------------------------------|
E--5---------7----------------------------------------------------------|

A
Bored walking on the boardwalk
           D                   E 
New Jersey Shore, If I come to New York
                    A   
Can i sleep on your floor?
                                        D 
And living out of suitcase on the motel floor

             E                   Bm
and running up tabs at the corner store
        D 
at the corner store

(the guitar part under the second half of each verse is much the same
as the chorus. Just less of each note, NOFX.)

Lead into chorus

e----------------------------------------------------------------------|
B----------------------------------------------------------------------|
G----------------------------------------------------------------------|
D---7-----7-9-9/11-9-12-11---------------------------------------------|
A------5---------------------------------------------------------------|
E----------------------------------------------------------------------|

Lead
                                          last time through go back to:
e---------------------------------------|-------------------------------|
B---------------------------------------|-------------------------------|
G--------9/11-9-------------------------|-------------------------------|
D---7-7---------9-11-9--7-7-7-7-9-7-6---|--7----------------------------|
A---------------------------------------|--------5----------------------|
E---------------------------------------|-------------------------------|

Bm
and theres
    D
not anymore.

D---7--9--9/11-9-------------------------|
Tap to rate this tab
# A B C D E F G H I J K L M N O P Q R S T U V W X Y Z