Song name
# A B C D E F G H I J K L M N O P Q R S T U V W X Y Z

Promise Ring - Make Me A Mix Tape tab

Title: Make Me a Mix Tape
Album: Electric Pink EP
Tabbed by: Kris Johansen - krisjohansen@guitarsrule.com
Tuning: EGCGCE

I made a mix tape for someone and stuck this on first. Seemed kinda
appropriate.

Verse and pre chorus Chords
  
   C     F      G    Bb    I think with the C chord there's something like this
                                        going
e-----|-----|-----|----|---------------------------------------------------|
C-----|-----|-----|----|---------------------------------------------------|
G--0--|--0--|--0--|--0-|-----2-0-0--0-0-0----------------------------------|
C--0--|--0--|--0--|--0-|-----0-0-0--0-0-0----------------------------------|
G--5--|--2--|--4--|--3-|-----5-5-5--5-5-5----------------------------------|
E-----|--1--|--3--|----|---------------------------------------------------|


Verse

C                                            F
You reminded me that I would never be twenty two
 
C                                                F       G 
Listening to the alarm, waking up south of north avenue

C                                                              F
My skin is gonna wonder, my skin is gonna wonder what Im doing Now

C                                                          F        G
My skin is gonna wonder, my skin is gonna wonder what I am doing Now


Pre-Chorus palm mute

C
So write me a letter and tell me where you are

                         F            G                 Bb      
how to get there and how long that it takes to tape me some songs


Chorus - order play 1,2,1,3 as below.

Make me a mix tape something old and something new

put something on that reminds me of you.

Make me a mix tape that makes me yours.

  
     1                  2                        3
e-------------|-------------------------|------------------------------|
C-------------|-------------------------|------------------------------|
G---9--10--7--|--9--10--12--14--15--17--|--9--10-----------------------|
C-------------|-------------------------|---------14-------------------|
G---9--10--7--|--9--10--12--14--15--17--|--9--10--12-------------------|
E-------------|-------------------------|------------------------------|

bridge - this is rather weird and very cool. I'm not 100% on it though.


e--0-0-0--0-0-0-0--0-0-0-0-0-0-0--0-0-0-0-0-0-0------------------------|
C--0-0-0--0-0-0-0--0-0-0-0-0-0-0--0-0-0-0-0-0-0--0-0-0-0-0-0-0-0-------|
G--0-0-0--0-0-0-0--0-0-0-0-0-0-0--0-0-0-0-0-0-0--0-0-0-0-0-0-0-0-------|
C--0-0-0--0-0-0-0--0-0-0-0-0-0-0--0-0-0-0-0-0-0--0-0-0-0-0-0-0-0-------|
G--3-3-3--5-5-5-5--0-0-0-5-5-5-5--0-0-0-4-4-4-4--5-5-5-5-5-5-5-5-------|
E------------------3-3-3-4-4-4-4--1-1-1-3-3-3-3------------------------|

Quiet Chorus

e----------------------------------------------------------------------|
C----------------------------------------------------------------------|
G--------0----------------0---------------0--------------0-------------|
C----0-----0---0-----0------0----0----0-----0---0----0-----0---0-------|
G--9---9-----9----10---10-----10----7---7-----7----7---7-----7---------|
E----------------------------------------------------------------------|
Tap to rate this tab
# A B C D E F G H I J K L M N O P Q R S T U V W X Y Z