Song name
# A B C D E F G H I J K L M N O P Q R S T U V W X Y Z

Promise Ring - Mineral Point tab

Title: Mineral Point    
Album: The Horse latitudes 
Tabbed by: Kris Johansen - krisjohansen@usa.net

Intro:

e---10--10--10---12-12-12-12--14-14-14-14--12-12-12-12-----------------|
B---10--10--10---10-10-10-10--10-10-10-10--10-10-10-10-----------------|
G---0~-----------------------------------------------------------------|
D----------------------------------------------------------------------|
A----------------------------------------------------------------------|
E----------------------------------------------------------------------|

Verse - The picking is quite random, heres the general idea:

e----------------------------------------------------------------------|
B--------0-----------------0---------------10--------------------------|
G----0-----0---0------0------0---------0---------0---------------------|
D------0-----0-----------0-----0---------0-----------------------------|
A--7------------7-7/9---------------10--------10-----------------------|
E----------------------------------------------------------------------|

Rockin bit after that: play through 4x

e----------------------------------------------------------------------|
B----------------------------------------------------------------------|
G--12-12-12-12-12-11-11-11-11-4-4-4-4-4-4-5-5-5-5----------------------|
D----------------------------------------------------------------------|
A--10-10-10-10-10--9-9-9-9-9--2-2-2-2-2-2-3-3-3-3----------------------|
E----------------------------------------------------------------------|

then the little break bit

e----------------------------------------------------------------------|
B--------0-~-----------------------------------------------------------|
G-----0-------0----0--~------------------------------------------------|
D-----0-------0--------------------------------------------------------|
A-----5-------3--------------------------------------------------------|
E-----3-------1--------------------------------------------------------|

Back to verse. with some wierd sounding open chords over the top
something like this. Actually these are probably way wrong. If you
know a better way, please tell me :)


e-0------------0----------0------------0--------------------------------|
B---3------------0----------3------------3------------------------------|
G-----0------------0----------0------------0----------------------------|
D-------0------------0----------0------------0--------------------------|
A---------2------------3----------5------------3------------------------|
E-----------0-----------------------------------------------------------|

Last rockin out bit after the "God created butterfly kisses" bit


"sun 
e----------------------------------------------------------------------|
B----------------------------------------------------------------------|
G--9--9--9--9--9---11-11-11-11-11--12--12--12--12--12--12--12--12------|
D----------------------------------------------------------------------| X2
A--7--7--7--7--7---9--9--9--9--9---10--10--10--10--10--10--10--10------|
E----------------------------------------------------------------------|

e----------------------------------------------------------------------|
B----------------------------------------------------------------------|
G--9--9--9--9--9---11-11-11-11-11--17--17--17--17--17--17--17--17------|
D----------------------------------------------------------------------| X2
A--7--7--7--7--7---9--9--9--9--9---15--15--15--15--15--15--15--15------|
E----------------------------------------------------------------------|


"After the sun is just..."

e----------------------------------------------------------------------|
B----------------------------------------------------------------------|
G--9--9--9--9--9---11-11-11-11-11--12--12--12--12--12--12--12--12------|
D----------------------------------------------------------------------| 
A--7--7--7--7--7---9--9--9--9--9---10--10--10--10--10--10--10--10------|
E----------------------------------------------------------------------|

e------------------------------------|
B------------------------------------|
G-17--17--17--17--17--17--17--17-----|
D------------------------------------| 
A-15--15--15--15--15--15--15--15-----|
E------------------------------------|

End with some picking behind the bridge.
Tap to rate this tab
 
# A B C D E F G H I J K L M N O P Q R S T U V W X Y Z