Song name
# A B C D E F G H I J K L M N O P Q R S T U V W X Y Z

Promise Ring - Living Around tab

Title: Living Around
Album: Very Emergency
Tabbed by: Kris Johansen - krisjohansen@guitarsrule.com


Intro
             x3               
e------------------------|---------------------------------------------|
B------------------------|---------------------------------------------|
G---7--7--7--7-----------|---4--4--4--4--------------------------------|
D---7--7--7--7--7-7-7-7--|---5--5--5--5--------------------------------|
A---5--5--5--5--7-7-7-7--|---5--5--5--5--------------------------------|
E---------------5-5-5-5--|---3--3--3--3--------------------------------|

Verse 


e--------------------0------3--2--0------------------------------------|
B--3~---------3-2h3----3------------3----------------------------------|
G--2~-------2--------------------------2-------------------------------|
D--0------0-------------------------------0----------------------------|
A----------------------------------------------------------------------|
E----------------------------------------------------------------------|


Pre-chorus "I guess this just fits..."


e----------------------------------------------------------------------|
B----------------------------------------------------------------------|
G---7-7-7-7--6--6--6--6--------------6--6--6--6--7--7--7--7--6--6--6--6|
D---7-7-7-7--7--7--7--7--9--9--9--9--7--7--7--7--7--7--7--7--7--7--7--7|
A---5-5-5-5--7--7--7--7--9--9--9--9--7--7--7--7--5--5--5--5--7--7--7--7|
E------------5--5--5--5--7--7--7--7--5--5--5--5--------------5--5--5--5|

e----------------------------------------------------------------------|
B----------------------------------------------------------------------|
G---4--4--4--4--4--4--4--4---------------------------------------------|
D---5--5--5--5--5--5--5--5---------------------------------------------|
A---5--5--5--5--5--5--5--5---------------------------------------------|
E---3--3--3--3--3--3--3--3---------------------------------------------|


lead

e----------------------------------------------------------------------|
B----------------------------------------------------------------------|
G--7-6--7/9--7--7-6-7/9--7---7--6-7-9-9/11--9--------------------------|
D----------------------------------------------------------------------|
A----------------------------------------------------------------------|
E----------------------------------------------------------------------|

e----------------------------------------------------------------------|
B----------------------------------------------------------------------|
G--7-6--7/9--7--7-6-7/9--7---7--6------------9-------------------------|
D----------------------------------7-7/9--7----------------------------|
A----------------------------------------------------------------------|
E----------------------------------------------------------------------|


e----------------------------------------------------------------------|
B----------------------------------------------------------------------|
G--7-6--7/9--7--7-6-7/9--7---7--6-7-9-9/11--9--------------------------|
D----------------------------------------------------------------------|
A----------------------------------------------------------------------|
E----------------------------------------------------------------------|

e----------------------------------------------------------------------|
B----------------------------------------------------------------------|
G--7-6--7/9--7--7-6-7/9--7---7--6-7-9-9/11--9---7----4-----------------|
D----------------------------------------------------------------------|
A----------------------------------------------------------------------|
E----------------------------------------------------------------------|


Chorus "Its the end of the world today you dropped a bomb..."
       
e-------------------------------------|------------------|-------------|
B-------------------------------------|------------------|-------------|
G--7-~--7--7----7-7---7~---7-7----7-7-|--4--4-4---------:|-6-6-6-6-----|
D--7-~--7--7-x--7-7---7~---7-7-x--7-7-|--5--5-5--5--5-5--|-7-7-7-7-----|
A--5-~--5--5-x--5-5---4~---4-4-x--4-4-|--5--5-5--5--5-5-:|-7-7-7-7-----|
E-------------------------------------|--3--3-3--2--2-2--|-5-5-5-5-----|

                                        1  2 +  3  4 +


In the outro part you leave out playing the A chord until the very
last time, just before the song ends.

e-------------------------------------|------------------|
B-------------------------------------|------------------|
G--7-~--7--7----7-7---7~---7-7----7-7-|--4--4-4---------:|
D--7-~--7--7-x--7-7---7~---7-7-x--7-7-|--5--5-5--5--5-5--|
A--5-~--5--5-x--5-5---4~---4-4-x--4-4-|--5--5-5--5--5-5-:|
E-------------------------------------|--3--3-3--2--2-2--|

                                        1  2 +  3  4 +



Tap to rate this tab
# A B C D E F G H I J K L M N O P Q R S T U V W X Y Z