Song name
# A B C D E F G H I J K L M N O P Q R S T U V W X Y Z

Promise Ring - Happiness Is All The Rage tab

Title: Happiness Is All the Rage
Album: Very Emergency
Tabbed by: Kris Johansen - krisjohansen@guitarsrule.com

Intro/Chorus

e----------------------------------------------------------------------|
B----------------------------------------------------------------------|
G----------------------------------------------------------------------|
D--7--7--7--7--7--7--7--7--4--4--4--4--2--2--2--2--7--7--7--7----------|
A--4--4--4--4--5--5--5--5--2--2--2--2--0--0--0--0--4--4--4--4----------|
E----------------------------------------------------------------------|

e-------------|---------------|
B-------------|---------------|
G-------------|---------------|
D--7--7--7--7-|-9-9-xx-9-9-9--|
A--5--5--5--5-|-7-7-xx-7-7-7--|
E-------------|---------------|

For the intro, play the whole thing twice, on the second time hold the D chord. In the 
chorus it goes to the E. Get me?

Little bit before singing starts.

e------------------------------------|
B------------------------------------|
G------------------------------------|
D-------------------7-7-7-7-7-7-7-7--|
A--7-7-7-7-7-7-7-7--5-5-5-5-5-5-5-5--|
E--5-5-5-5-5-5-5-5-------------------|

Verse chords

e----|---|----|----|---|---|
B----|---|----|----|---|---|
G----|---|----|----|---|-9-|
D----|-7-|----|--11|-4-|-9-|
A--7-|-5-|--7-|--9-|-2-|-7-|
E--5-|---|--5-|----|---|-7-|

Bridge(of sorts)

   "yeah now it's alright between us"
e----------------------------------------------------------------------|
B----------------------------------------------------------------------|
G----------------------------------------------------------------------|
D--11--4--9------------------------------------------------------------|
A--9---2--7------------------------------------------------------------|
E----------------------------------------------------------------------|


Outro

"happiness is all the rage"  Song ends on the A.

e---------|-------------------------------------------------------------|
B---------|-------------------------------------------------------------|
G---------|-------------------------------------------------------------|
D-----7---|-------------------------------------------------------------|
A--7--5---|--9-9-7-7-5-5-4-4-2------------------------------------------|
E--5------|-------------------------------------------------------------|

             Little descending part
Tap to rate this tab
 
# A B C D E F G H I J K L M N O P Q R S T U V W X Y Z