Song name
# A B C D E F G H I J K L M N O P Q R S T U V W X Y Z

Promise Ring - Happy Hour tab

Title: Happy Hour
Album: Very Emergency
Tabbed by: Kris Johansen - krisjohansen@guitarsrule.com


Intro

e----------------------------------------------------------------------|
B----------------------------------------------------------------------|
G----8h9--9--9--9-9-9-9------------------------------------------------|
D----9-9--9--9--9-9-9-9------------------------------------------------|
A----7-7--7--7--7-7-7-7------------------------------------------------|
E----------------------------------------------------------------------|


Verse "Hey hey where are we living now, from witching to
a happy hour.."

e----------------------------------------------------------------------|
B----------------------------------------------------------------------|
G----9----6------------------------------------------------------------|
D----9----7------------------------------------------------------------|
A----7----7------------------------------------------------------------|
E----0----5------------------------------------------------------------|

Lead
                    x2        second time through play this as well  
e--------------------------|-------------------------------------------|
B--------------------------|-------------------------------------------|
G---9-8-9-8-9-8h9----------|-------------------------------------------|
D------------------9/11--9-|---13--11----------------------------------|
A--------------------------|-------------------------------------------|
E--------------------------|-------------------------------------------|

Chorus "Where are we living now..."

e----------------------------------------------------------------------|
B----------------------------------------------------------------------|
G---9------------------------------------------------------------------|
D---9---7--9--7--9--7--9-----------------------------------------------|
A---7---7--9--7--7--7--9-----------------------------------------------|
E---0---5--7--5--0--5--7-----------------------------------------------|
Tap to rate this tab
 
# A B C D E F G H I J K L M N O P Q R S T U V W X Y Z