Song name
# A B C D E F G H I J K L M N O P Q R S T U V W X Y Z

Promise Ring - All Of My Everything tab

Title: All of My Everythings 
Album: Very Emergency
Tabbed by: Kris Johansen - krisjohansen@guitarsrule.com



   Intro           Verse Chords

                   A     Bm    D    G
e--0-----------|---0--|--7--|-----------------------------------------------|
B---0----------|---0--|--7--|-----------------------------------------------|
G----6---------|---6--|--7--|--7--------------------------------------------|
D-----7--------|---7--|--9--|--7----5---------------------------------------|
A------7-------|---7--|--9--|--5----5---------------------------------------|
E-------5------|---5--|--7--|-------3---------------------------------------|


A                   Bm           A  
Dance record from be  fore I was born
         Bm                                    D
on the stereo     etc..... all of my every days

              A     G    
and all of my every every days



Guitar 2 

"Dance record..."

e----------------------------------------------------------------------|
B----------------------------------------------------------------------|
G----------------------------------------------------------------------|
D--------------------------4---2---------------------------------------|
A--0-0-0-0-2-0-0--2/4--2-2--------4/-----------------------------------|
E----------------------------------------------------------------------|

"on the stereo..."
e----------------------------------------------------------------------|
B----------------------------------------------------------------------|
G--------------------------4---2---------------------------------------|
D----------------------------------------------------------------------|
A--0-0-0-0-2-0-0-2/4--2-2---------4/-----------------------------------|
E----------------------------------------------------------------------|

"playing last rights..."
e----------------------------------------------------------------------|
B----------------------------------------------------------------------|
G----------------------------------------------------------------------|
D--------------------------4---2---------------------------------------|
A--0-0-0-0-2-0-0--2/4--2-2--------4/-----------------------------------|
E----------------------------------------------------------------------|

"all of my evenings..."      of my everydays"            
e----------------------------------------------------------------------|
B----------------------------------------------------------------------|
G----------------------------------------------------------------------|
D--------------------------------------2--4~---4/6-4-2--4--0~----------|
A--0-0-0-0-2-0-0-2/4--2-2--2----0--2h4---------------------------------|
E----------------------------------------------------------------------|

Then you play through the first three again but the fourth one
is different as shown below.


"starting on separate days"
e----------------------------------------------------------------------|
B----------------------------------------------------------------------|
G---------------------------------------------2--4/6--4--2-4--0--------|
D--------------------------------------2--4~---------------------------|
A--0-0-0-0-2-0-0-2/4--2-2--2----0--2h4---------------------------------|
E----------------------------------------------------------------------|

Chorus - "why did ever we part"

  
Guitar 1 chords            Guitar 2 fill
e--------------------|--------------------|----------------------------|
B--------------------|--------------------|----------------------------|
G--------------------|--------------------|-6~-------------------------|
D---7---5---5---2----|-------------7------|----------------------------|
A---5---3---2---0----|-----0--7/9-----0---|----------------------------|
E--------------------|--------------------|----------------------------|

then another verse with that fourth guitar 2 bit.

Lead break
                                     1st           2nd,3rd,4th times through
e--------------9--9---9----7--7--7-|--5--9--5-|--9--9--5---------------|
B---0--0--0---10-10--10----9--9--9-|--7--7--7-|--7--7--7---------------|
G--11-11-11------------------------|----------|------------------------|
D----------------------------------|----------|------------------------|
A----------------------------------|----------|------------------------|
E----------------------------------|----------|------------------------|
Tap to rate this tab
# A B C D E F G H I J K L M N O P Q R S T U V W X Y Z