Song name
# A B C D E F G H I J K L M N O P Q R S T U V W X Y Z

Promise Ring - Arms And Danger tab

Title: Arms and Danger
Album: Very Emergency
Tabbed by: Kris Johansen - krisjohansen@guitarsrule.com

Intro/Chorus

e----------------------------------------------------------------------|
B----------------------------------------------------------------------|
G---5-------7---10-----------------------------------------------------|
D---5---7---7---10-----------------------------------------------------|
A---3---7---5---8------------------------------------------------------|
E-------5--------------------------------------------------------------|


Verse

e----------------------------------------------------------------------|
B----------------------------------------------------------------------|
G------------------10--10-10-10-10-------------------------------------|
D---10--10-10-10---10--10-10-10-10-------------------------------------|
A---10--10-10-10---8---8--8--8--8--------------------------------------|
E---8---8--8--8--------------------------------------------------------|


"Hours before we go.."

e----------------------------------------------------------------------|
B----------------------------------------------------------------------|
G--3----5---10---------------------------------------------------------|
D--3----5---10----10--10--8-8-8-8--------------------------------------|
A--1----3---8-----10--10--8-8-8-8--------------------------------------|
E-----------------8---8---6-6-6-6--------------------------------------|

"still we'll not know"

e---------------------------------------------|------------------------|
B---------------------------------------------|------------------------|
G---------------------------------------------|------------------------|
D--10-10-10-10--10-10-10-10--7-7-7-7--5-5-5-5-|--3---5-----10----------|
A---8--8--8--8--7--7--7--7---5-5-5-5--3-3-3-3-|--1---3-----8-----------|
E---------------------------------------------|------------------------|

Lead under chorus

e----------------------------------------------------------------------|
B----------------------------------------------------------------------|
G----------------------------------------------------------------------|
D----------------------------------------------------------------------|
A--3---5/7--5--5/7-5--5/10---------------------------------------------| x2
E----------------------------------------------------------------------|

e----------------------------------------------------------------------|
B----------------------------------------------------------------------|
G------------7/9-7-----9-----------------------------------------------| x1
D----5/9--5------------------------------------------------------------|
A--3-------------------------------------------------------------------|
E----------------------------------------------------------------------|


No one could be happier for you.



Tap to rate this tab
# A B C D E F G H I J K L M N O P Q R S T U V W X Y Z