Song name
# A B C D E F G H I J K L M N O P Q R S T U V W X Y Z

Promise Ring - American Girl tab

Title: American Girl (V.02)
Album: Boys + Girls EP
Tabbed by: Kris Johansen - krisjohansen@guitarsrule.com


    Am7 
e--------------------------------------------------------|
B-----------1--------------------------------------------|
G---------0----0-h-2-------------------------------------| x4 
D----5/7-------------------------------------------------|
A--------------------------------------------------------|
E--------------------------------------------------------|

or if you're playing alone you may prefer this even though above
is more like what's in the song.

   Am7
e------------------------------------------------------|
B--------1---------------------------------------------|
G------0----0h2----------------------------------------| x4
D----2-------------------------------------------------|
A--0---------------------------------------------------|
E------------------------------------------------------|

 Fmaj7/9
e-----------0-----------------------------------------|
B--------1----1---------------------------------------|
G-----0---------0-------------------------------------| x4
D--3--------------------------------------------------|
A-----------------------------------------------------|
E-----------------------------------------------------|

Just keep alternating between those two patterns for ages then at around
1:19 seconds through the song you get to change slightly - 

     (X2)              (x2) (I think the bass is playing 
                           a G here and its confusing me)
e---------0------|--------0--------|
B-------1---1----|------1---1------|
G----0--------0--|----0-------0----|
D--2-------------|--0-----------0--|
A----------------|-----------------|
E----------------|-----------------|

then back to the other pattern for a while until 1:53 through the 
song when you go back to the above for the same amount. Then just
play the Fmaj7/9 pattern over and over and over and over and over.

Lead (comes in with the drums)

e----------------------------------------------------------------------|
B--------3-------------6------------3---------6------------------------|
G----------------------------------------------------------------------|
D--3----------5/7----------7----3-------5/7-----------7/---------2-----|
A----------------------------------------------------------------------|
E----------------------------------------------------------------------|

e----------------------------------------------------------------------|
B----------------------------------------------------------------------|
G----------------------------------------------------------------------|
D--2p0--0--0h2-2----2p0------------------------------------------------|
A-----------------------------3---5----3-----5-------------------------|
E----------------------------------------------------------------------|

as 1st guitar plays fmaj7/9 at end, lead guitar does this in time
with the bass.

e----------------------------------------------------------------------|
B----------------------------------------------------------------------|
G----------------------------------------------------------------------|
D-----------------------------------2~---------------------------------|
A--3--3-----3--3------3---3-------3------------------------------------|
E----------------------------------------------------------------------|
Tap to rate this tab
 
# A B C D E F G H I J K L M N O P Q R S T U V W X Y Z