Song name
# A B C D E F G H I J K L M N O P Q R S T U V W X Y Z

Promise Ring - American Girl tab

Title: American Girl (V.01)
Album: Electric Pink EP
Tabbed by: Kris Johansen - krisjohansen@guitarsrule.com


Verse Progression

   D   A  Bm7   D   A

e--2-------2----2-------------------------------------------------------|
B--3---2---3----3---2---------------------------------------------------|
G--2---2---2----2---2---------------------------------------------------|
D--0---2---4----0---2---------------------------------------------------|
A------0---2--------0---------------------------------------------------|
E----------2------------------------------------------------------------|

D        A                         Bm                      D
American Girl, Your young country world, sleeps like promising

             A       D etc etc 
and sleep is promising.

   A  G   D   A 

e-----3---2------------------------------------------------------------|
B--2--3---3---2--------------------------------------------------------|
G--2--0---2---2--------------------------------------------------------|
D--2--0---0---2--------------------------------------------------------|
A--0--2-------0--------------------------------------------------------|
E-----3----------------------------------------------------------------|

A              G               D                       A   
  And time is tight, but not tonight and thats right i know. 

Lead line with some icky effect on it. The first time
you play through once. The second time the lead occurs
you play three times of the first and then one of the second.


e----------------------------------------------------------------------|
B----------------------------------------------------------------------|
G----------------------------------------------------------------------|
D----------------------------------------------------------------------|
A---5-5--5-7-5--7/9-7-5-7-0--2---4--5--7/9-7--5-7-5--------------------|
E----------------------------------------------------------------------|


e----------------------------------------------------------------------|
B----------------------------------------------------------------------|
G----------------------------------------------------------------------|
D----------------------------------------------------------------------|
A---5-5--5-7-5--7/9-7-5-7-0--2---0---4--5-7---7/9-7--------------------|
E----------------------------------------------------------------------|
Tap to rate this tab
 
# A B C D E F G H I J K L M N O P Q R S T U V W X Y Z