Song name
# A B C D E F G H I J K L M N O P Q R S T U V W X Y Z

Promise Ring - Best Looking Boys tab

Artist: The Promise Ring
Title: Best Looking Boys
Album: Boys + Girls EP
Tabbed by: Jason (gravity_slips@hotmail.com)
Tuning: Standard


Intro                 Verses
----------------|-----------------------------------------------------------|
----------------|-----------------------------------------------------------|
-5--------------|---9-9---9-9---9-9---9-9---12-12---12-12---12-12---12--10--|
-5---------3----|-----------------------------------------------------------|
-3---------3----|---7-7---7-7---7-7---7-7---10-10---10-10---10-10---10--8---|
-----------1----|-----------------------------------------------------------|

Little Lead Part
------------------------------------------------------------------------|
------------------------------------------------------------------------|
-9-9-7-9-9-7-9-9-7-9-9-7-\-5-5-7-5-5-7-5-5-7-5-5-7----------/-12-10-9-7-|
-0-0-0-0-0-0-0-0-0-0-0-0---0-0-0-0-0-0-0-0-0-0-0-0--(x2)----------------|
------------------------------------------------------------------------|
------------------------------------------------------------------------|

Bridge-Like thing

(play this first time)            (add these second time)


(guitar 1)
|--------------------------------|--------------------------------|
|--------------------------------|--------------------------------|
|--------------------------------|--------------------------------|
|-5----------7----------9--------|--11------13------15------------|
|-5---(x12)--7---(x12)--9--(x12)-|--11-(x8)-13-(x8)-15--(x-8)-----|
|-3----------5----------7--------|--9-------11------13------------|
|
|
|(guitar 2)
|--------------------------------|--------------------------------|
|--------------------------------|--------------------------------|
|-5----------5----------5--------|--5--------5-------5------------|
|-5----------5----------5--------|--5--------5-------5------------|
|-3----------3----------3--------|--3--------3-------3------------|
|--------------------------------|--------------------------------|



Chorus/Interlude Thing ("Micheal D., David K.," etc.)

(guitar 1)
|------------------------------------------------------|
|------------------------------------------------------|
|-9--12--10----------------------12--10----------------|
|------------------------------------------------------|
|----------------------------12------------------------|
|------------------------------------------------------|
|
|
|(guitar 2)
|------------------------------------------------------|
|------------------------------------------------------|
|------------9--12--10-----------------------12--10----|
|------------------------------------------------------|
|----------------------------------------12------------|
|------------------------------------------------------|
Tap to rate this tab
# A B C D E F G H I J K L M N O P Q R S T U V W X Y Z