Song name
# A B C D E F G H I J K L M N O P Q R S T U V W X Y Z

Promise Ring - Red And Blue Jeans tab

i'm pretty sure the song's not in standard. but everyone just wants to belt it out 
so here it is.

VERSE

-0--0----------------------------0--0----------3---------------|
-1--1---1------------------------1--1----------1---------------|
-2--0---0---------0-0-----------2--0----------0----------------|
-3--3---2----2-2h3-2-----------2--2----------2-----------------|
-3--3---3----3-3---3------------0--0----------x----------------|
-1--1-------------------------------------------3--------------|
nothing feels good like you in red and blue jeans and your white and night things


BREAK (x4)

--0-------0------0--------------------------------|
--1-------1------1--------------------------------|
--2-------0------0--------------------------------|
--3-------2------0--------------------------------|
--3-------3------2--------------------------------|
--1--------------3--------------------------------|

after break

-0------------0----------------------------------|
-1------------1----------------------------------|
-2------------0----------------------------------|
-3------------2----------------------------------|
-3------------3----------------------------------|
-1-----------------------------------------------|


On the part with the "doo doos," just play it like the first verse
* on the last part of the "doo doos," add in the Fmaj7 at the end.
-0---------------0--0---0---------------------------|
-1---------------1--1---1---------------------------|
-2---------------2--0---2---------------------------|
-3---------------2--2---3---------------------------|
-3---------------0--x---3---------------------------|
-1------------------3---1---------------------------|


OUTRO

-0--0--------------0-------|
-1--1--------------1-------|
-2--0---0-0-------0--------|
-3--3---2-2h3-2--2---------|
-3--3---3-3-3-----3--------|
-1--1----------------------|


and that's it. i hope you guys enjoy.
Tap to rate this tab
 
# A B C D E F G H I J K L M N O P Q R S T U V W X Y Z