Song name
# A B C D E F G H I J K L M N O P Q R S T U V W X Y Z

Prong - Lost And Found tab

Prong - "Lost and found"
from the album: Beg to Differ (1990) (Epic)

Tuning: E A D G B E
Tab difficulty: Novice

This is the first song i've tabbed so Im not 100% sure if this is the way Prong plays 
awesome song, but this is how i do it correct me if im horribly wrong. The song flow is simple
so i don't waste time showing it, just samples of the riffs.

v.linnas@hotmail.com

Intro riff / Chorus riff

      PM         PM         PM     PM
E-|---------------------------------------------|
B-|---------------------------------------------|
G-|---------------------------------------------|
D-|----------4--------3----------------2-1------|
A-|----------2--------1----------3-----2-1------|
E-|-0-0-0-0----0-0-0----0-0-0-0--1--0-----------|

Verse Riff

E-|-----------------------------------------------------|
B-|------7--------------7------------------7------------|
G-|----6---6----------6---6--------6-----6---6-------7--|
D-|--4-------5--x---4-------5--x---4---4-------5--x--6--|
A-|-----------------------------------------------------|
E-|-----------------------------------------------------|


Riff before solo
                Pull Off, PM           Pull off  ,PM
E-|--------------------------------------------------|
B-|--------------------------------------------------|
G-|---------------3-3---3-3--------------3-3--3-3--3-|
D-|--2------2-----3-3---3-3---2------2---3-3--3-3--3-|
A-|--2------2-----------------2------2---------------|
E-|--0------0-----------------0------0---------------|

Riff after the solo

*Palm mute all
E-|--------------------------|
B-|--------------------------|
G-|--------------------------|
D-|--------------------------|
A-|--------------------------|
E-|-0-0-2-0-0-1-0-0-2-0-0-1--|

E-|-------------------------------|
B-|-------------------------------|
G-|-------------------------------|
D-|-------------------------------|
A-|-------------------------------|
E-|-1-1-1-1-2-1-1-1-1-4-1-1-1-1-3-|
Tap to rate this tab
# A B C D E F G H I J K L M N O P Q R S T U V W X Y Z