Song name
# A B C D E F G H I J K L M N O P Q R S T U V W X Y Z

Prong - Detached tab

----------------------------------------------------------------------------------|
			     Detached - Prong
----------------------------------------------------------------------------------|
Tabbed by:Tim-O-tay
Email:timmy_york@hotmail.com

Tuning:Low to high: AEADF#B

   Intro and Choruses
B |-------------------------------------------------------------------------------|
F#|-------------------------------------------------------------------------------|
D |-------------------------------------------------------------------------------|
A |-1--3--4--3--4--3--6--4--3--4--3--0--------------------------------------------|
E |-1--3--4--3--4--3--6--4--3--4--3--0-X 4 or something---------------------------|
A |-1--3--4--3--4--3--6--4--3--4--3--0--------------------------------------------|
 

   VERSES                                    
B |-------------------------------------------------------------------------------|
F#|-------------------------------------------------------------------------------|
D |-14-----------15--15--15--15--15-----15--15--15--15--15------------------------|
A |-XX--0--0--0--XX--XX--XX--XX--XX--0--XX--XX--XX--XX--XX--FIGURE OUT THE PATTERN|
E |-12--0--0--0--13--13--13--13--13--0--12--12--12--12--12--CAUSE IT'S NOT HARD.--|
A |-----0--0--0----------------------0--------------------------------------------|


IF YOU KNOW THE SONG, YOU WILL BE ABLE TO MAKE SENSE OF THIS.
TUNE TO DROP A AND LISTEN TO THE SONG. IT'S THAT EASY.


| /  slide up
| \  slide down
| h  hammer-on
| p  pull-off
| ~  vibrato
| +  harmonic
| x  Mute note
==================================================================================|
Tap to rate this tab
# A B C D E F G H I J K L M N O P Q R S T U V W X Y Z